Oops, an error
Loading. Please wait.

Gone Tab

version 1
version 1

Intro

5,918 views 1 this week
3 commentsread comments
1 2 3 4 5
x 4
add to favorites
×
Save as Personal and add changes to this tab that will be seen only by you. Learn more ›
×
You can save this tab as Personal to edit and correct it or add notes. All changes will be seen only by you. Learn more »
save as personal
new!
launch autoscroll
font size
0
reset
how to read this tab
guitar tuner
backing track
0:00
0:00
Autoscroll
slow
fast
+/-
esc
set tempo
stop
ok this sounds great with my electric, with some bass and treble but also sounds ok with my acoustic

e:-----------------------------------------------------------------------|
B:--------1-----1-1-----------0------0-0---------------------------------|
G:-----2-------------------0---------------------------------------------|
D:--0-------0-----------0--------0---------------------------------------|
A:-----------------------------------------------------------------------|
E:-----------------------------------------------------------------------|

ok just run through that 4 times total im pretty sure its like exactly right but if you 
something better please submit it cus i would like to see it thanks
Suggest correction
comments
print report bad tab
3 comments total.
0 reply
runbacker30 40 Jun 28, 2005 08:00 PM

e|------------------------------------------------------------------|
A|-----2-------2----2-------0-------0------0------------------------|
D|---1-------1------------0-------0---------------------------------|
G|-0-------0------0-----0-------0-------0---------------------------|
B|------------------------------------------------------------------|
E|------------------------------------------------------------------|


This is the way I play it, but with a chorus pedal.

0 reply
slipknotfan2448 10 Jul 03, 2005 08:00 PM

runbacker30 that sounds completey wrong

0 reply
Adam223 88 Aug 06, 2005 08:00 PM

ya i no i listened to it more and more and runbacker yours is right

im the one who submitted this but i was registered then

guest
Wanna post a correction for this tab? Suggest correction