Oops, an error
Loading. Please wait.

Always Look On The Bright Side Of Life Tab

version 1
version 1

Intro

Whole song

Interactive

33,603 views 42 this week
no commentswrite comment
1 2 3 4 5
excellent!
x 10
add to favorites
launch autoscroll
font size
0
reset
how to read this tab
guitar tuner
Autoscroll
slow
fast
+/-
esc
set tempo
stop
Help us to improve Ultimate-Guitar.com Take our survey!
×
Author
Difficulty
novice
    ___________________________________________________
   /  Always Look on the Bright Side of Life (Intro)  / Thought I'd tab this out
  /  Monty Python              _____________________ / since no one had done it
 /  Life of Brian Soundtrack  / 100% yet! Do I have to explain what it's about?
/­____________________________/ It's just so genious - play it when you're down!



 The song is played on a steel-stringed guitar with a pick. I've added the
 lyrics below the tabs, so that the syllables roughly matches the timing of
 the notes. It's in G major all the way.

                          D13
:---------------------7------7----:
:-----------------5-7-------5-----:
:-----------4-5-7----------5------:
:-7p5p4-5-7---------------4-------:
:---------------------------------:
:---------------------------------:


         Cmaj7              Cmmaj7        Gmaj7           Cmaj7
:-------|--------------------------------|----------------------3-----|
:-------|5------------------4------------|3--------3------5--------5--|
:-------|4------------------4------------|------4------------4--------|
:-------|5------------------5------------|---4------------5-----------|
:-------|3------------------3------------|----------------3-----------|
:-------|--------------------------------|3---------------------------|
 Some... things in life are bad, They can really make you mad,


 D11sus                               Gmaj13
|5-----------5--------------5--------|------------0-------------------|
|5-------5---------8----p5--5--------|---------3-----3----------------|
|5---5-------------5--------5----5---|------4-----------4-------------|
|---------------------------0--------|---4-------------------4--------|
|5-----------------5-----------------|--------------------------------|
|------------------------------------|3-------------------------------|
 Other things just make you swear and curse,            When you're...


 Cmaj7             Cm13           Gmaj7            E7
|3-----------------5-------------|-----------------0-----------------|
|5-----------------4-------------|3-------------------------3--------|
|4-----------------3-------------|4----------------------1-----------|
|5-----------------5-------------|4-------------------2--------------|
|3-----------------3-------------|-----------------------------------|
|--------------------------------|3----------------0-----------------|
 chewing on life's gristle, Don't grumble - give a whistle,    And...


 A13                                  D13
|2-----------------------------------|----------------<7>-----------|
|2-----------------------------------|3--------3-----<7>------------|
|4-----------------------------------|------5-------<7>-------------|
|5-----------------------------------|---4---------<7>--------------|
|0-----------------------------------|5-----------------------------|
|------------------------------------|------------------------------|
 this'll help things turn out for the best,        And...!



------------------------------------------------------------------------------
 20th /July /07
 Just mail me at Maitinin@gmail.com with questions, comments and corrections!
------------------------------------------------------------------------------



 " Maitinin writing here - the author of this tab.

   The past 11 years, I have generated 10,318,000 views and 815 top-rated tabs for this site.
   If you want to support an eager contributor like me, check out my own site:


   _____  http://www.PlayLikeTheGreats.com  _____


   Here I will continue to upload and improve my transcriptions.

   Best regards,
   Maitinin

   July, 2015 "
Suggest correction
comments
print report bad tab
guest
You may want to rate the tab now too:
select rating
Please do not post tabs as comments. Select "correction" instead!