Oops, an error
Loading. Please wait.

Monty Tab

2,021 views 1 this week
1 commentread comment
1 2 3 4 5
excellent!
x 3
add to favorites
launch autoscroll
font size
0
reset
how to read this tab
guitar tuner
Autoscroll
slow
fast
+/-
esc
set tempo
stop
Help us to improve Ultimate-Guitar.com Take our survey!
×
Monty Python theme

I quickly searched the 'net for this tab, but could not find it. I might have simply missed it.

Anyway, here is the Monty Python theme tune. It's a nice, upbeat song and fairly easy to play.
I think I've got the notes right, the rhythm might be a little off, but you know how it goes!

Tuning: Standard EADGbe

Intro

-1--0-------------------------------||
------3--2-1--0----------------1----||
----------------3--2-0-2-3-2-0------||
------------------------------------||
------------------------------------||
------------------------------------||

Main theme

-----------1------------------------||-----------0------------------------||
-------------1-1--------------------||-------------1-1-----------------1--||
-5--2-22212-------2-3---3-3---5-7---||-5-----------------3-2---1-2---3----||
------------------------------------||---5-5545---------------------------||
------------------------------------||------------------------------------||
------------------------------------||------------------------------------||

-----------1-1-0-----3-33-3-3-------||-1-0--3333---3333-------------------||
-----------------3------------------||-----------3------1-0-1-0-1---------||
-5--2-22212-------------------------||---------------------------------3--||
------------------------------------||------------------------------------||
------------------------------------||------------------------------------||
------------------------------------||------------------------------------||

Second part

------------------------------------||--------------1~~~0~~~--------------||
------------------------------------||----5--3--1-----------3~~~1~~~------||
-2-1-2/7--5--2----------------------||--03------------------------------3-||
---------------3--------5~~~3~~~-3--||-2----------------------------------||
--------------------5~~~------------||------------------------------------||
------------------------------------||------------------------------------||

--------------------1-1h3p1-01h3----||-1-------------1--------------------||
-3-3h5p3-1-3-5---3------------------||----3-1----------------5~~~6~~~-----||
------------------------------------||----------3-2------5~~~-------------||
------------------------------------||------------------------------------||
------------------------------------||------------------------------------||
------------------------------------||------------------------------------||

Any queries, please email me: turkey1605@hotmail.co.uk

I might even do a bass tab, if someone wants it...
Suggest correction
What's this?
You can suggest a correction to this tab. Community and Mods will review your correction and vote to approve or reject it.
comments
We did not receive enough feedback on this tab! Please rate:
print report bad tab
1 2 3 4 5
1 comment total.
+1 reply
spoing24 319 wrote on May 8 2008, 05:13 pm

i'd like a bass tab!! great tab though. 5*

guest
You may want to rate the tab now too:
select rating
Please do not post tabs as comments. Select "correction" instead!