Oops, an error
Loading. Please wait.

Je Suis La Montagne tab

by Moodoid
1,326 views 6 this week
1 commentread comment
1 2 3 4 5
x 3
add to favorites
×
Save as Personal and add changes to this tab that will be seen only by you. Learn more ›
×
You can save this tab as Personal to edit and correct it or add notes. All changes will be seen only by you. Learn more »
launch autoscroll
font size
0
reset
how to read this tab
guitar tuner
edit
Autoscroll
slow
fast
+/-
esc
set tempo
stop
Author
-------------------------------------------------------------------------------
                             Je Suis La Montagne - Moodoïd
-------------------------------------------------------------------------------
Tabbed by: Andros

Tuning: Standard
https://www.facebook.com/Moodoid
http://www.youtube.com/watch?v=vlqd0d-Z-sY this video will help you learn the song faster

             all 11's
e|-----------------------------------------------------------------------------|
B|-----------------------------------------------------------------------------|
G|-----------------------------------------------------------------------------|
D|------------7-7-7/9/11-1111-------------------7-7-79-5-5---------------------|
A|---7-7-79-7-0-0-0/0/0-0-0------------7-7-79-0-0-00-0-0-----------------------|
E|---0-0-00-0-0-0-0/0/0-0-0------------0-0-00-0-0-00-0-0-----------------------|

|-----------------------------------------------------------------------------|
B|-------------------------7--------------------------------------------------|
G|---------------------7-9----------------------------------------------------|
D|------------7-7-7-9-----------------------------7-7-79-5-5------------------|
A|---7-7-79-7-0-0-0-0----------------------7-7-79-0-0-00-0-0------------------|
E|---0-0-00-0-0-0-0-0----------------------0-0-00-0-0-00-0-0------------------|


(1:30) after "je suis à l'intérieur de toi"
e|---------------------------------------------------------------------------|
B|---------------------------------------------------------------------------|
G|---------------------------------------------------------------------------|
D|----------------787--------------------------------------------------------|
A|--7-7-7-7\5-5-5-----------x4-------7-7-77-1-1-222--5-5-55-1-1-222----------|
E|--0-0-0-0\0-0-0--------------------0-0-00-0-0-000--0-0-00-0-0-000-------x2-|



(3:37) "Ouuuuh"

  E (mi)   A (la)        (different strumming patterns, listen to the song to figure them out)
e|--0--------0-----------------------------------------------------------------|
B|--0--------2-----------------------------------------------------------------|
G|--1--------2-----------------------------------------------------------------|
D|--2--------2-----------------------------------------------------------------|
A|--2--------0-----------------------------------------------------------------|
E|--0--------------------------------------------------------------------------|
^^This goes on until the end of the song, but the main riff is playing too, at the same time.

            
            
Suggest correction
Creating personal tab
Creating personal tab
You can edit any tab online and save it as your Personal.

You can edit, replace or remove any tab part or add personal notes – all changes will be seen only by you.

Personal tabs can be accessed anytime from any device, even offline.
Learn more »
Give kudos to tab author, rate the tab!
1 2 3 4 5
comments
print report bad tab
1 comment total.
0 reply
campazoo 10 Jul 09, 2014 10:26 AM, edited at 02:28 pm

Très bien fait, merci beaucoup pour la contribution!

guest
You may want to rate the tab now too:
select rating
Wanna post a correction for this tab? Suggest correction