Oops, an error
Loading. Please wait.

Two High intro tab

592 views 96 this week
1 commentread comment
1 2 3 4 5
3 more votes to show rating
add to favorites
×
Save as Personal and add changes to this tab that will be seen only by you. Learn more ›
×
You can save this tab as Personal to edit and correct it or add notes. All changes will be seen only by you. Learn more »
launch autoscroll
font size
0
reset
how to read this tab
guitar tuner
edit
Autoscroll
slow
fast
+/-
esc
set tempo
stop
About this tab version
Nobody has made a tab for this song yet. Was this info helpful? Yes No
[Intro]
Not perfectly accurate but its the best I could do considering there are no other tabs for it.
e|-----10--------9-------2---------3p2-0----|
B|----7--7-----5--------3--3------3---------|
G|------------------------------------------| x2
D|-9-------9\7------9\0-------0h2--------2/-|
A|------------------------------------------|
E|------------------------------------------|

[Verse]
2 slides up to 9 except for the last time
e|-----10--------9-------2--------2--------2------|
B|----7--7-----5--------3--3-----3--3-----3--3----|
G|------------------------------------------------| x4
D|-9-------9\7------9\0-------0-------0-0------2/-|
A|------------------------------------------------|
E|------------------------------------------------|
When you feel the world around you..

e|----3--------3-------3--------------------------|
B|---3--3-----3--3----3--3---3h5p3-0-----2--------|
G|-----------------------------------1/2----------|
D|-2------2-2------2-2-----2----------------------|
A|------------------------------------------------|
E|------------------------------------------------|
But you dont ever have to hide...

[Chorus]
Second time dont play the pull offs and just jump to the bridge
e|-----10-9---------9-------2---------3p2p0-------10---------9-------2---------3p2p0--|
B|----7----7------5--------3--3------3-----3-----7--7------5--------3---------3-----3-|
G|------------------------------------------------------------------------------------| x2
D|-9---------9\7-------9\0-------0h2-----------9--------9-7------9\0--------2---------|
A|------------------------------------------------------------------------------------|
E|------------------------------------------------------------------------------------|
   So put em' up...

[Bridge]
e|----7------------------7--------------|
B|---7--8-7-----7-8-----7--8-7-----7-8--|
G|----------7------------------7--------|
D|-9----------9-------9----------9------|
A|--------------------------------------|
E|--------------------------------------|

[When brass comes in]
e|-----10-9---------9-------2---------3p2p0-------10---------9-------2---------3p2p0--|
B|----7----7------5--------3--3------3-----3-----7--7------5--------3---------3-----3-|
G|------------------------------------------------------------------------------------|  
D|-9---------9\7-------9\0-------0h2-----------9--------9-7------9\0--------2---------|
A|------------------------------------------------------------------------------------|
E|------------------------------------------------------------------------------------|
So put em' up..
Thats all i have for now! Hope it helps :)

            
            
Suggest correction
Creating personal tab
Creating personal tab
You can edit any tab online and save it as your Personal.

You can edit, replace or remove any tab part or add personal notes – all changes will be seen only by you.

Personal tabs can be accessed anytime from any device, even offline.
Learn more »
Give kudos to tab author, rate the tab!
1 2 3 4 5
comments
print report bad tab
1 comment total.
0 reply
jcdiers 10 6 days ago

Nice work! These chords sound right to me. I don't know the name of the first chord so I have to describe it....
Bm with a D note added on the high E string 10th fret.
So...
Bm A D Em. For the verses and the chorus. Apologies if I'm off...

guest
You may want to rate the tab now too:
select rating
Wanna post a correction for this tab? Suggest correction