Oops, an error
Loading. Please wait.

Ugly Flower Pretty Vase Bass Tab

10 views 3 this week
no commentswrite comment
1 2 3 4 5
3 more votes to show rating
add to favorites
launch autoscroll
font size
0
reset
guitar tuner
Autoscroll
slow
fast
+/-
esc
set tempo
stop
Help us to improve Ultimate-Guitar.com Take our survey!
×
Author
This is what I figured out for the bass! Suggestions and corrections welcome.



[Verse 1] [0:00-0:32] (I'm an ugly flower...)

G|---------------------------------------------------------------------------|
D|-------------7-5-5-5-5-5-5-5-5-5-7-----------5---------------5-------------|
A|-7-7-7-7-7-5-----------------------5-5-5-5-5---5-7-7-7-7-7-7---5-7---------|
E|---------------------------------------------------------------------------| --> x2 

G|---------------------------------------------------------------------------|
D|-------------7-5---5-7-7/9---9-7-5--------------5---------------5----------|
A|-7-7-7-7-7-5------------------------7\5-5-5-5-5---5-7-7-7-7-7-7---5-7------|
E|---------------------------------------------------------------------------| --> x2 



[Pre-Chorus] [0:32-0:48] (The circle goes on and on...)

G|---------------------------------------------------------------------------|
D|-------------7-5---5-7-7/9---9-7-5-7-9-12-9---7-5-------------5------------|
A|-7-7-7-7-7-5--------------------------------------7-7-7-7-7-7---5-7--------|
E|---------------------------------------------------------------------------| --> x2 



[Instrumental] [0:48-1:19]

G|---------------------------------------------------------------------------|
D|-------------7-5-5-5-5-5-5-5-5-5-7-----------5---------------5-------------|
A|-7-7-7-7-7-5-----------------------5-5-5-5-5---5-7-7-7-7-7-7---5-7---------|
E|---------------------------------------------------------------------------| --> x2 

G|---------------------------------------------------------------------------|
D|-------------7-5---5-7-7/9---9-7-5--------------5---------------5----------|
A|-7-7-7-7-7-5------------------------7\5-5-5-5-5---5-7-7-7-7-7-7---5-7------|
E|---------------------------------------------------------------------------| --> x2 



[Verse 2] [1:20-1:50] (I've not seen the sunlight for...)

G|---------------------------------------------------------------------------|
D|-------------7-5---5-7-7/9---9-7-5--------------5---------------5----------|
A|-7-7-7-7-7-5------------------------7\5-5-5-5-5---5-7-7-7-7-7-7---5-7------|
E|---------------------------------------------------------------------------| --> x4



[Pre-Chorus] [1:51-2:07] (The circle goes on and on...)

G|---------------------------------------------------------------------------|
D|-------------7-5---5-7-7/9---9-7-5-7-9-12-9---7-5-------------5------------|
A|-7-7-7-7-7-5--------------------------------------7-7-7-7-7-7---5-7--------|
E|---------------------------------------------------------------------------| --> x2  



[Chorus] [2:08-2:39] (Out of the window...)

G|---------------------------------------------------------------------------|
D|-------------7-5-5-5-5-5-5-5-5-5-7-----------------------------------------|
A|-7-7-7-7-7-5-----------------------7\5-5-5-5-5-7-5-----------------5-------|
E|---------------------------------------------------8-8-8-8-8-8-7-8---------| --> x1 

G|---------------------------------------------------------------------------|
D|-------------7-5---5-7-7/9---9-7-5-----------------------------------------|
A|-7-7-7-7-7-5------------------------7\5-5-5-5-5-7-5-----------------5------|
E|----------------------------------------------------8-8-8-8-8-8-7-8--------| --> x3 



[Instrumental] [2:40-3:42]

G|---------------------------------------------------------------------------|
D|-------------7-5-5-5-5-5-5-5-5-5-7-----------5---------------5---5---------|
A|-7-7-7-7-7-5-----------------------5-5-5-5-5---5-7-7-7-7-7-7---5---7-------|
E|---------------------------------------------------------------------------| --> x2 

G|---------------------------------------------------------------------------|
D|-------------7-5---5-7-7/9---9-7-5--------------5---------------5----------|
A|-7-7-7-7-7-5------------------------7\5-5-5-5-5---5-7-7-7-7-7-7---5-7------|
E|---------------------------------------------------------------------------| --> x7



[Chorus] [3:43-4:14] (Out of the window...)

G|---------------------------------------------------------------------------|
D|-------------7-5-5-5-5-5-5-5-5-5-7-----------------------------------------|
A|-7-7-7-7-7-5-----------------------7\5-5-5-5-5-7-5-----------------5-------|
E|---------------------------------------------------8-8-8-8-8-8-7-8---------| --> x1 

G|---------------------------------------------------------------------------|
D|-------------7-5---5-7-7/9---9-7-5-----------------------------------------|
A|-7-7-7-7-7-5------------------------7\5-5-5-5-5-7-5-----------------5------|
E|----------------------------------------------------8-8-8-8-8-8-7-8--------| --> x3



[Instrumental] [4:15-4:45]

G|---------------------------------------------------------------------------|
D|-------------7-5---5-7-7/9---9-7-5-----------------------------------------|
A|-7-7-7-7-7-5------------------------7\5-5-5-5-5-7-5-----------------5------|
E|----------------------------------------------------8-8-8-8-8-8-7-8--------| --> x4



[Verse 3] [4:46-5:01] (I'm an ugly flower...)

G|---------------------------------------------------------------------------|
D|-------------7-5-5-5-5-5-5-5-5-5-7-----------5---------------5-------------|
A|-7-7-7-7-7-5-----------------------5-5-5-5-5---5-7-7-7-7-7-7---5-7---------|
E|---------------------------------------------------------------------------| --> x2 



[Outro] [5:02-5:16]

G|---------------------------------------------------------------------------|
D|-------------7-5-5-5-5-5-5-5-5-5-7-----------5---------------5-------------|
A|-7-7-7-7-7-5-----------------------5-5-5-5-5---5-7-7-7-7-7-7---5-7---------|
E|---------------------------------------------------------------------------| --> x1 

G|---------------------------------------------------------------------------|
D|-------------7-5-5-5-5-5-5-5-5-5-7-----------5-----------------------------|
A|-7-7-7-7-7-5-----------------------5-5-5-5-5---5-7-------------------------|
E|---------------------------------------------------------------------------| --> x1 
   


************************************
| /   Slide up
| \   Slide down
************************************
Suggest correction
Give kudos to tab author, rate the tab!
1 2 3 4 5
comments
print report bad tab
guest
You may want to rate the tab now too:
select rating
Wanna post a correction for this tab? Suggest correction