Oops, an error
Loading. Please wait.

2Econd Skin Bass Tab

version 1
version 1

Whole song

327 views 3 this week
no commentswrite comment
1 2 3 4 5
3 more votes to show rating
add to favorites
launch autoscroll
font size
0
reset
guitar tuner
×
Best way to learn
"2econd Skin"
Autoscroll
slow
fast
+/-
esc
set tempo
stop
-------------------------------------------------------------------------------
                             2econd SKIN - MOONSPELL
-------------------------------------------------------------------------------


Tabbed By : DOOMBASSIST
Tuning: Standard

HI! This is my first tab so if I have any mistakes, I would appreciate it if you tell me!
zero_1942@hotmail.com Send for comments and mistakes
You can paste it every were you want I don't have any problems with this.
Have fun and never give up playing the bass!

 Intro x4
G|-------------------------------------------------|
D|-------------------------------------------------|
A|-------------------------------------------------|
E|--0h2--0h2--0h2--0h2--0h2--0h2--0h2--0h2---3333--|

 Riff 1 x4
G|-----------------------------------------------------------------------------------------|
D|-----------------------------------------------------------------------------------------|
A|--0h2--0h2--0h2--0h2---7-5---0h2--0h2--0h2--0h2---7-5------------------------------------|
E|----------------------------------------------------------------------33-2-222-33-2-222--|

 Riff 2 x4
G|-------------------------------------------------|
D|-------------------------------------------------|
A|-------------------------------------------------|
E|--0h2--0h2--0h2--0h2--0h2--0h2--0h2--0h2---3333--|

 Riff 3 x4
G|--------------------------------------------------------|
D|--------------------------------------------------------|
A|--0h2--0h2--0h2--0h2--0h2--0h2--0h2--0h2---10-10-10-10--|
E|--------------------------------------------------------|

 Riff 4
G|------------------------------------------------|
D|------------------------------------------------|
A|--0--------0--------0----0--------0--------0----|
E|----0-0-0----0-0-0----0----0-0-0----0-0-0----0--|

G|----------------|
D|----------------|
A|----------------|
E|---3(x9)-1(x9) -|

| h  hammer-on
===============================================================================
Suggest correction
Give kudos to tab author, rate the tab!
1 2 3 4 5
comments
print report bad tab
guest
You may want to rate the tab now too:
select rating
Wanna post a correction for this tab? Suggest correction