Oops, an error
Loading. Please wait.

A Poisoned Gift Bass Tab

version 1
version 1

Whole song

Interactive

134 views 3 this week
no commentswrite comment
1 2 3 4 5
please rate
add to favorites
launch autoscroll
font size
0
reset
guitar tuner
Autoscroll
slow
fast
+/-
esc
set tempo
stop
Help us to improve Ultimate-Guitar.com Take our survey!
×
Author
Zombievamp 1,111
#-----------------------------PLEASE NOTE-------------------------------# 
# This file is the author's own work and represents their interpretation of the # 
# song. You may only use this file for private study, scholarship, or research. # 
#-------------------------------------------------------------------------# 

ARTIST:MOONSPELL 
SONG:A POISONED GIFT 
ÁLBUM:IRRELIGIOUS (TRACK 6,05:34,1996 CENTURY MEDIA) 
MUSIC:MOONSPELL 
LYRICS:FERNANDO RIBEIRO 
BASS PLAYER:ARES (now singer on Deepskin) 
BASS TABLATURE:NARCISO (GOTHBASS31@VAMPIREFREAKS.COM) 

RIFF I 
G|-------------------------------------------------------| 
D|-------------------------------------------------------| 
A|-7-5-7------5-7-7-5-7----------------------------------| 
E|--------5-5------------5-5-1-1-1-1-1-1-1-1-1-1-1-1-1-1-| 

RIFF II 
G|------------------------------------------| 
D|------------------------------------------| 
A|-7-5-7-----5-7-7-5-7----------------------| 
E|--------5-5-----------5-5-1-1-1-1-1-1-1-1-| 

RIFF III 
G|-------------------------| 
D|-------------------------| 
A|---------------7-5-5-5-5-| 
E|-5-5-5--5-5-7------------| 

RIFF IV 
G|-------------------------------------------------------------------| 
D|-------------------------------------------------------------------| 
A|-----------------------------------5-5-5-5-5-5-5-5-5-5-5-5-5-5-5-5-| 
E|-5-5-5-5-5-5-5-5-5-5-5-5-5-5-5-5-----------------------------------| 

RIFF V 
G|---------------------------------------------------------------| 
D|---------------------------------------------------------------| 
A|---------------------------------------------------------------| 
E|-5-5-5-5-5—5-5-5-5-5-5-5-5-5-5-5-1-1-1-1-1-1-1-1-1-1-1-1-1-1-1-| 

RIFF VI 
G|-----------------------------------------------------------------| 
D|-----------------------------------------------------------------| 
A|-----------------------------------------------------------------| 
E|-5-5-5-5-5-5-5-5-3-3-3-3-3-3-3-3-1-1-1-1-1-1-1-1-3-3-3-3-3-3-3-3-| 

RIFF VII 
G|------------------------------------------------------------------| 
D|------------------------------------------------------------------| 
A|------------------2-2-2-2-2-2-2-2-3-3-3-3-3-3-3-3-5-5-5-5-5-5-5-5-| 
E|-5-5-5-5-5-5-5-5--------------------------------------------------| 

RIFF VIII 
G|--------------------------------------------------------------7-7-| 
D|------------------------------------------------------------------| 
A|------------------2-2-2-2-2-2-2-2-3-3-3-3-3-3-3-3-5-5-5-5-5-5-----| 
E|-5-5-5-5-5-5-5-5--------------------------------------------------| 

RIFF IX (Bass solo) 
G|---------------------------------------------------------------------------------------- 
D|-7-7-7-9-10-14-13-13-13-13-13-13-7-7-7-9-10-14-13-13-13-13-13-13-7-7-7-9-10-14-13------ 
A|---------------------------------------------------------------------------------------- 
E|---------------------------------------------------------------------------------------- 

------------------------------------------------------------------------------------------- 
-15-14-15-14-15-7-7-7-9-10-14-13-13-13-13-13-13-14-13-11-9H11H9-7-7-7-9-10-14-13-13 
------------------------------------------------------------------------------------------- 
------------------------------------------------------------------------------------------- 

------------------------------15-14-15-14-15----------------------------------------- 
-13-13-13-13-7-7-7-9-10-14-13-----------------7-7-7-9-10-14-13--7-7-7-9-10-14-13-13 
----------------------------------------------------------------------------------------- 
----------------------------------------------------------------------------------------- 

-------------------------------15-14-15-14-15-------------------| 
-13-13-13-13-7-7-7-9-10-14-13------------------7-7-7-9-10-14-13-| 
----------------------------------------------------------------| 
----------------------------------------------------------------| 

RIFF X 
G|------------------------| 
D|------------------------| 
A|------2----3-------5--7-| 
E|-5--------------5-------| 

RIFF XI 
G|------------------------------------15-14-15-14-15-------------------| 
D|-13-13-13-13-13-13-7-7-7-9-10-14-13-----------------7-7-7-9-10-14-13-| 
A|---------------------------------------------------------------------| 
E|---------------------------------------------------------------------| 

STRUCTURE: 
RIFF I  (1X) (00:20) 
RIFF II (1X) (00:2 
RIFF III(4X) (01:06) 
RIFF IV (1X) (01:37) 
RIFF V  (1X) (01:45) 
RIFF IV (1X) (01:53) 
RIFF V  (1X) (02:00) 
RIFF III(4X) (02:05) 
RIFF IV (1X) (02:39) 
RIFF V  (1X) (02:46) 
RIFF VI (6X) (02:54) 
RIFF VII(1X) (03:25) 
RIFF VI (1X) (03:32) 
RIFF VII(1X) (03:40) 
RIFF IX (1X) (03:56) (Bass solo) * 
RIFF VI (4X) (04:34) 
RIFF X  (2X) (05:05) 
RIFF XI (1X) (05:20) 

SYMBOLS: 
H = HAMMER ON 
Suggest correction new What's this?
You can suggest a correction to this tab. Community and Mods will review your correction and vote to approve or reject it.
comments
We did not receive enough feedback on this tab! Please rate:
print report bad tab
1 2 3 4 5
guest
You may want to rate the tab now too:
select rating
Please do not post tabs as comments. Select "correction" instead!