Oops, an error
Loading. Please wait.

A Walk On The Dark Side Bass Tab

836 views 1 this week
no commentswrite comment
1 2 3 4 5
please rate
add to favorites
launch autoscroll
font size
0
reset
guitar tuner
Autoscroll
slow
fast
+/-
esc
set tempo
stop
Help us to improve Ultimate-Guitar.com Take our survey!
×
Author
ARTIST:MOONSPELL
MUSIC:A WALK ON THE DARK SIDE (THE ANTIDOTE,2003 CENTURY MEDIA,TRACK 8 04:44)
BASS PLAYER:NICLAS ETELAVUORI (WWW.AMORPHIS.NET)
BASS TABLATURE:ANTÓNIO NARCISO (PT) Email:GOTHBASS31@VAMPIREFREAKS.COM

RIFF 1
E-7-7-7-|
A-------|
D-------|
G-------|

RIFF 2
-5-7-5-7-5-7-5-7-5-7-5-5-3-3-3-3-3-3-3-3-0-0-0-0-0-0-0-0-|
---------------------------------------------------------|
---------------------------------------------------------|
---------------------------------------------------------|

RIFF 3
-0-5-7-0-5-7-0-5-7-0-5-8-8-8-|
-----------------------------|
-----------------------------|
-----------------------------|

RIFF 4
-7-7-7-7-7-7-7-7-3-3-3-3-3-3-3-3-0-0-0-0-0-0-0-0-5-5-5-5-5-5-5-5---------------|
-------------------------------------------------------------------------------|
-------------------------------------------------------------------------------|
-------------------------------------------------------------------------------|

RIFF 5
-0—5—3-
-------|
-------|
-------|

RIFF 6
-------------------------------------------------0-0-0-0-0-0-0-0------------------|
-4-4-4-4-4-4-4-4-4-4-4-4-4-4-4-4-4-4----------------------2-2-2-2-2-2-2-2---------|
----------------------------------------------------------------------------------|
----------------------------------------------------------------------------------|

Structure:
Riff 1 4x (00:00)
Riff 2 2x (00:19)
Riff 1 8x (00:38)
Riff 3 3x (01:08)
Riff 4 2x (01:26)
Riff 5 2x (01:46)
Riff 3 4x (01:55)
Riff 4 4x (02:24)
Riff 6 2x (03:03)
Riff 6 3x (04:00)
Suggest correction
Give kudos to tab author, rate the tab!
1 2 3 4 5
comments
print report bad tab
guest
You may want to rate the tab now too:
select rating
Please do not post tabs as comments. Select "correction" instead!