Oops, an error
Loading. Please wait.

Alma Mater Tab

version 1
version 1

Whole song

Interactive

8,585 views 18 this week
no commentswrite comment
1 2 3 4 5
accurate
x 3
add to favorites
launch autoscroll
font size
0
reset
how to read this tab
guitar tuner
Autoscroll
slow
fast
+/-
esc
set tempo
stop
Help us to improve Ultimate-Guitar.com Take our survey!
×
Most of the this music is played with the bass and synthesizers, but I've
translated what I could to play with a guitar.
Hope you enjoy...

Music: Alma Mater
Band: Moonspell
Album: Wolfheart
Lyrics by Langsuyar, Music by Moonspell

00:00 -> 00:30  - One guitar playing Riff 1, the other playing Riff 2, three
                  times, then play and mute the D5 chord.

                  RIFF 1:

------------------------------------------------------------------------------
------------------------------------------------------------------------------
------------------------------------------------------------------------------
------------------------------------------------------------------------------
------------------------------------------------------------------------------
5-5-5-5-3-2-3-3-3-3-2-3-5-5-5-5-3-2-0-0-0-0-5-5-5-5-3-2-3-3-3-3-2-----2-----0-
------------------------------------------------------------------3-3---1-1---

                  RIFF 2:

------------------------------------------------------------------------------
------------------------------------------------------------------------------
7-7-7-7-7-7-5-5-5-5-5-5-7-7-7-7-7-7-2-2-2-2-7-7-7-7-7-7-5-5-5-5-5-------------
7-7-7-7-7-7-5-5-5-5-5-5-7-7-7-7-7-7-2-2-2-2-7-7-7-7-7-7-5-5-5-5-5-5-5-5-3-3-3-
5-5-5-5-5-5-3-3-3-3-3-3-5-5-5-5-5-5-0-0-0-0-5-5-5-5-5-5-3-3-3-3-3-5-5-5-3-3-3-
------------------------------------------------------------------3-3-3-1-1-1-

00:31 -> 01:11  - Again, the two guitars playing Riff 1 and Riff 2, with
                  keyboards in the background.

01:11 -> 01:31 - Guitars play Riff 3 four times (chorus).

                 RIFF 3:

                 E5                            F5 D5
                 -----------------------------------
                 -----------------------------------
                 9-9--9----9-9--9----9-9--9----10-7-
                 9-9---9---9-9---9---9-9---9---10-7-
                 7-7----7--7-7----7--7-7----7--8--5-
                 -----------------------------------

01:34 -> 02:35 - Riff 1 and Riff 2 are played by the two guitars.

02:35 -> 02:55 - Riff 3 is played again 4 times.

02:58 -> 03:37 - Play Riff 4 two times, and then Riff 5 (this is like the
                 music's solo).

                 RIFF 4:

------------------------------------------------------------------------------
------------------------------------------------------------------------------
------------------------------------------------------------------------------
------------------------------------------------------------------------------
0-0-0-3-3-3-7-7-7-10-10-10-8-8-8-8-8-8-7-7-7-3-3-3-0-0-0-3-3-3-7-7-7-10-10-10-
------------------------------------------------------------------------------

---------------------------
---------------------------
---------------------------
---------------------------
8-8-8-8-8-8-10-10-10-8-8-8-
---------------------------

                 RIFF 5:

                 --------------------------------------
                 --------------------------------------
                 --------------------------------------
                 --------------------------------------
                 7-7-7-7-8-7-7-7-7-8-7-5-5-5-5-3-3-3-3-
                 --------------------------------------

03:39 -> 04:19 - Riffs 1 and 2 played by the two guitars.

04:19 -> 04:40 - Riff 3, played 4 times.

04:42 -> 05:36 - Riffs 1 and 2, yet again. Sometimes, Riff 2 is replaced by
                 Riff 6.

                 RIFF 6:

------------------------------------------------------------------------------
------------------------------------------------------------------------------
7-7-7-7-7-7-5-5-5-5-5-5-7-7-7-7-7-7-2-2-2-2-7-7-7-7-7-7-5-5-5-5-5-4-4-4-2-2-2-
7-7-7-7-7-7-5-5-5-5-5-5-7-7-7-7-7-7-2-2-2-2-7-7-7-7-7-7-5-5-5-5-5-4-4-4-2-2-2-
5-5-5-5-5-5-3-3-3-3-3-3-5-5-5-5-5-5-0-0-0-0-5-5-5-5-5-5-3-3-3-3-3-2-2-2-0-0-0-
------------------------------------------------------------------------------

                                   THE END

---------------------------------------------------------------------------

           [ Back To Tabs ] [ Back To Main Page ] [ More Stuff ]
Suggest correction
What's this?
You can suggest a correction to this tab. Community and Mods will review your correction and vote to approve or reject it.
comments
We did not receive enough feedback on this tab! Please rate:
print report bad tab
1 2 3 4 5
guest
You may want to rate the tab now too:
select rating
Please do not post tabs as comments. Select "correction" instead!