Oops, an error
Loading. Please wait.

Alma Mater Tab

version 2
version 2

Whole song

Interactive

2,305 views 1 this week
1 commentread comment
1 2 3 4 5
please rate
add to favorites
launch autoscroll
font size
0
reset
how to read this tab
guitar tuner
Autoscroll
slow
fast
+/-
esc
set tempo
stop
Help us to improve Ultimate-Guitar.com Take our survey!
×
Song: Alma Mater
Band: Moonspell
Album: Wolfheart
Tablature by Emmanuel Mortus: I hope you enjoy playing this good piece...

RIFF1:*
------------------------------------------------------------------------|
------------------------------------------------------------------------|
------------------------------------------------------------------------|
0-0-0-0---------------0-0-0-0-3-2-0-----0-0-0-0-------------------------|
-------3-2-3-3-3-3-2-3-------------------------3-2-3-3-3-3-2---2------0-|
-----------------------------------------------------------2-2-2--0-0-0-|

*Check the variation of RIFF1 only at the opening parts of the verses:
-----------------------------------|
-----------------------------------|
-----------------------------------|
0-0-0-0---------------0-0-0-0-3-3--|
-------3-2-3-3-3-3-2-3-------------|
-----------------------------------|

RIFF2:
------------------------------------------------------------------------------|
------------------------------------------------------------------------------|
7-7-7-7-7-7-5-5-5-5-5-5-7-7-7-7-7-7-2-2-2-2-7-7-7-7-7-7-5-5-5-5-5-------------|
7-7-7-7-7-7-5-5-5-5-5-5-7-7-7-7-7-7-2-2-2-2-7-7-7-7-7-7-5-5-5-5-5-5-5-5-3-3-3-|
5-5-5-5-5-5-3-3-3-3-3-3-5-5-5-5-5-5-0-0-0-0-5-5-5-5-5-5-3-3-3-3-3-5-5-5-3-3-3-|
------------------------------------------------------------------3-3-3-1-1-1-|

RIFF3:
E5                            F5 D5
-----------------------------------|
-----------------------------------|
9-9--9----9-9--9----9-9--9----10-7-|
9-9---9---9-9---9---9-9---9---10-7-|
7-7----7--7-7----7--7-7----7--8--5-|
-----------------------------------|

RIFF4:
-----------------------------------------|
-----------------------------------------|
-----------------------------------------|
-----------2-2-2-5-5-5-3-3-3-3-3-3-------|
0-0-0-3-3-3-----------------------3-3-3--|
-----------------------------------------|

RIFF5:
-------------------------------------------|
-------------------------------------------|
-------------------------------------------|
0-0-0-0-2-0-0-0-0-0------------------------|
-------------------3-2-3-3-3-3-2-0-2-2-2-2-|
-------------------------------------------|

RIFF6:
------------------------------------------------------------------------------|
------------------------------------------------------------------------------|
7-7-7-7-7-7-5-5-5-5-5-5-7-7-7-7-7-7-2-2-2-2-7-7-7-7-7-7-5-5-5-5-5-4-4-4-2-2-2-|
7-7-7-7-7-7-5-5-5-5-5-5-7-7-7-7-7-7-2-2-2-2-7-7-7-7-7-7-5-5-5-5-5-4-4-4-2-2-2-|
5-5-5-5-5-5-3-3-3-3-3-3-5-5-5-5-5-5-0-0-0-0-5-5-5-5-5-5-3-3-3-3-3-2-2-2-0-0-0-|
------------------------------------------------------------------------------|
Suggest correction new What's this?
You can suggest a correction to this tab. Community and Mods will review your correction and vote to approve or reject it.
comments
We did not receive enough feedback on this tab! Please rate:
print report bad tab
1 2 3 4 5
1 comment total.
0 reply
EmmanuelMortus 11 wrote on July 5 2007, 09:39 pm

yehh it's easy... good...

guest
You may want to rate the tab now too:
select rating
Please do not post tabs as comments. Select "correction" instead!