Oops, an error
Loading. Please wait.

Alma Mater Tab

version 3
version 3

Whole song

Interactive

2,455 views 3 this week
no commentswrite comment
1 2 3 4 5
please rate
add to favorites
launch autoscroll
font size
0
reset
how to read this tab
guitar tuner
Autoscroll
slow
fast
+/-
esc
set tempo
stop
Help us to improve Ultimate-Guitar.com Take our survey!
×
Difficulty
novice
Artist: Moonspell
Title: Alma Mater
        
Tabulature by Wooniak


RIFF 1

E|-------------------------------------------------------------------------|
B|-------------------------------------------------------------------------|
G|-------------------------------------------------------------------------|
D|--12-12-12-12--10-9--10-10-10-10--9-10--12-12-12-12--10-9--7-7-7-7-7-7---|
A|--0--0--0--0---0--0--0--0--0--0---0-0---0--0--0--0---0--0--0-0-0-0-0-0---|
E|-------------------------------------------------------------------------|


E|--------------------------------------------------------|
B|--------------------------------------------------------|
G|--------------------------------------------------------|
D|--12-12-12-12--10-9--10-10-10-10-9---------9--------7---|
A|--0--0--0--0---0--0--0--0--0--0--0---10-10--10--8-8-----|
E|--------------------------------------------------------|

  
RIFF 2

E|-----------------------------------------------------------------|
B|-----------------------------------------------------------------|
G|-----------------------------------------------------------------|
G|--9-9-9-9-9-9-9-9-9-9-9-9-9-9-9-9-9-9---10--10--10--10--10--10---|
D|--9-9-9-9-9-9-9-9-9-9-9-9-9-9-9-9-9-9---10--10--10--10--10--10---|
A|--7-7-7-7-7-7-7-7-7-7-7-7-7-7-7-7-7-7---9---9---9---9---9---9----|


RIFF 3

E|------------------------------------|
B|------------------------------------|
G|------------------------------------|
D|----------222-555-33333-2-----------|
A|------333-----------------333-555---|
E|--555-------------------------------|


RIFF 4

E|-----------------------------------------------------------------------|
B|-----------------------------------------------------------------------|
G|-----------------------------------------------------------------------|
D|-----------------------------------------------------------------------|
A|--5555-7-55555-3-2-3333-2---222222---5555-7-55555-3-2-3333-2---2-2-2---|
E|--------------------------5----------------------------------5---------|


E|-------------------------------------------------------------------|
B|-------------------------------------------------------------------|
G|-------------------------------------------------------------------|
D|-------------------------------------------------------------------|
A|--5555-7-55555-3-2-3333-2---222222---5555-7-55555-3-2-3333-2---2---|
E|--------------------------5----------------------------------5-----|


RIFF 5

E|--------------------------------------------------------------------|
B|--------------------------------------------------------------------|
G|--------------------------------------------------------------------|
D|--14-14-14-12-12-12-10-10-10-9-9-9--12-12-12-10-10-10-9-9-9-7-7-7---|
A|--0--0--0--0--0--0--0--0--0--0-0-0--0--0--0--0--0---0-0-0-0-0-0-0---|
E|--------------------------------------------------------------------|


E|-------------------------------------------------------|
B|-------------------------------------------------------|
G|-------------------------------------------------------|
D|--14-14-14-12-12-12-10-10-10-10-9---------9--------7---|
A|---0--0--0--0--0--0--0--0--0--0-0---10-10--10--8-8-----|
E|-------------------------------------------------------|



RIFF 1   7x
RIFF 2   4x
RIFF 1   6x
RIFF 2   4x
RIFF 3   4x
RIFF 4   1x
RIFF 1   4x
RIFF 2   4x
RIFF 1   2x
RIFF 5   4x
Suggest correction
Give kudos to tab author, rate the tab!
1 2 3 4 5
comments
print report bad tab
guest
You may want to rate the tab now too:
select rating
Please do not post tabs as comments. Select "correction" instead!