Oops, an error
Loading. Please wait.

Ancient Winter Goddess Bass Tab

323 views 1 this week
no commentswrite comment
1 2 3 4 5
please rate
add to favorites
launch autoscroll
font size
0
reset
guitar tuner
Autoscroll
slow
fast
+/-
esc
set tempo
stop
Help us to improve Ultimate-Guitar.com Take our survey!
×
Author
Difficulty
intermediate
ARTIST:MOONSPELL
MUSIC:ANCIENT WINTER GODDESS (UNDER SATANAE,2007 UNIVERSAL TRACK 8 06:08)
BASS PLAYER:AIRES PEREIRA
BASS TAB:ANTÓNIO NARCISO (PT) EMAIL:GOTHBASS31@VAMPIREFREAKS.COM

RIFF 1
E-0-0-0-0-0-0-0-0-0-0-0-0-0-0-3-4-0-0-0-0-0-0-0-0-0-0-0-0-0-0-3-4-3-|
A-------------------------------------------------------------------|
D-------------------------------------------------------------------|
G-------------------------------------------------------------------|

RIFF 2
E-5-5-5-5-5-5-5-5-9-9-8-8-7-7-|
A-----------------------------|
D-----------------------------|
G-----------------------------|

RIFF 3
E-0-0-0-0-1-1-0-0-0-0-1-1-0-0-0-0-1-1-4-4-4-4-|
A---------------------------------------------|
D---------------------------------------------|
G---------------------------------------------|

RIFF 4
E-0-0-4-3-0-0-4-3-4-0-0-4-3-0-0-4-3---|
A-----------------------------------3-|
D-------------------------------------|
G-------------------------------------|

RIFF 5
E-3-2-
A-----
D-----
G-----

RIFF 6
E-3-3-3-3-3-3-3-3-2-2-2-2-2-2-2-2-|
A---------------------------------|
D---------------------------------|
G---------------------------------|

RIFF 7
E-7-7-7-7-7-7-8-8-7-7-7-7-7-7-8-8-7-7-7-7-7-7-8-8-7-7-7-7-7-7-10-10-8-8-7-7-7-7-7-7-8-8-|
A---------------------------------------------------------------------------------------|
D---------------------------------------------------------------------------------------|
G---------------------------------------------------------------------------------------|

STRUCTURE:
RIFF 1 2X (00:17)
RIFF 2 4X (00:28)
RIFF 1 2X (00:40)
RIFF 2 4X (00:50)
RIFF 3 9X (01:10)
RIFF 4 6X (02:22)
RIFF 5 4X (02:59)
RIFF 6 10X (03:11)
RIFF 7 2X (04:04)
RIFF 1 2X (04:34)
RIFF 2 4X (04:46)
RIFF 3 6X (04:58)
Suggest correction
Give kudos to tab author, rate the tab!
1 2 3 4 5
comments
print report bad tab
guest
You may want to rate the tab now too:
select rating
Wanna post a correction for this tab? Suggest correction