Oops, an error
Loading. Please wait.

Antidote Bass Tab

563 views 1 this week
no commentswrite comment
1 2 3 4 5
please rate
add to favorites
launch autoscroll
font size
0
reset
guitar tuner
Autoscroll
slow
fast
+/-
esc
set tempo
stop
Help us to improve Ultimate-Guitar.com Take our survey!
×
Author
ARTIST:MOONSPELL
MUSIC:ANTIDOTE (THE ANTIDOTE,2003 CENTURY MEDIA,TRACK 5 4:45)
BASS PLAYER:NICLAS ETELAVUORI
BASS TABLATURE:ANTÓNIO NARCISO (PT) Email:GOTHBASS31@VAMPIREFREAKS.COM

RIFF 1
E-5-5-5-5--------------------|
A------------3-3-3-3-5-5-5-5-|
D----------------------------|
G----------------------------|

RIFF 2
E-5-5-5-5-5-5-5-5--------------------------1-1-1-1-1-1-1-1------------------------|
A-----------------------5-5-5-5-3-3-3-3-5-----------------------5-5-5-5-3-3-3-3-5-|
D---------------------------------------------------------------------------------|
G---------------------------------------------------------------------------------|

RIFF 3
E-5-5-5-5-5-5-5-5---------|
A-----------------------5-|
D-------------------------|
G-------------------------|


STRUCTURE:

RIFF 1 4X (00:28)
RIFF 2 2X (00:40)
RIFF 1 4X (01:16)
RIFF 2 7X (01:29)
RIFF 3 1X (03:17)
RIFF 2 4X (03:40)
Suggest correction
Give kudos to tab author, rate the tab!
1 2 3 4 5
comments
print report bad tab
guest
You may want to rate the tab now too:
select rating
Wanna post a correction for this tab? Suggest correction