Oops, an error
Loading. Please wait.

As We Eternally Sleep On It Bass Tab

183 views 1 this week
no commentswrite comment
1 2 3 4 5
please rate
add to favorites
launch autoscroll
font size
0
reset
guitar tuner
Autoscroll
slow
fast
+/-
esc
set tempo
stop
Help us to improve Ultimate-Guitar.com Take our survey!
×
Contributor
Difficulty
Zombievamp 1,111
intermediate
ARTIST:MOONSPELL
MUSIC:AS WE ETERNALLY SLEEP ON IT (THE ANTIDOTE,2003 CENTURY MEDIA TRACK 10 07:09)
BASS PLAYER:NICLAS ETELAUVORI
BASS TAB:NARCISO (PT) EMAIL:GOTHBASS31@VAMPIREFREAKS.COM

RIFF 1
E-3----5----5-|
A-------------|
D-------------|
G-------------|

RIFF 2
E-0-0-0-0-0-0-0-0-2-2-2-2-|
A-------------------------|
D-------------------------|
G-------------------------|

RIFF 3
E-5-5-5-5-3-3-|
A-------------|
D-------------|
G-------------|

RIFF 4
E---------------------------------5-5-5-5-5-5-5-5-|
A-3-3-3-3-3-3-3-3-5-5-5-5-5-5-5-5-----------------|
D-------------------------------------------------|
G-------------------------------------------------|

RIFF 5
E-3----2-2-2-2-2-2-2-2-|
A----------------------|
D----------------------|
G----------------------|

RIFF 6
E-5-5-5-5-5-5-5-5-7-7-7-7-|
A-------------------------|
D-------------------------|
G-------------------------|

RIFF 7
E-0-0-0-0-0-0-0-0-0-0-0-0-0-0-0-2-2-2-2-2-2-2-2-3-3-3-3-3-3-3-3-2-2-2-2-2-2-2-2-|
A-------------------------------------------------------------------------------|
D-------------------------------------------------------------------------------|
G-------------------------------------------------------------------------------|

STRUCTURE:
RIFF 1 3X (00:51)
RIFF 2 2X (01:21)
RIFF 3 2X (01:29)
RIFF 2 6X (01:32)
RIFF 4 3X (02:06)
RIFF 5 1X (02:28)
RIFF 2 8X (02:35)
RIFF 4 3X (03:19)
RIFF 2 2X (03:49)
RIFF 6 1X (03:56)
RIFF 2 5X (04:00)
RIFF 7 1X (04:18)
RIFF 8 1X (04:33)
RIFF 4 3X (04:50)
RIFF 4 1X (05:12)
RIFF 2 7X (05:19)
Suggest correction What's this?
You can suggest a correction to this tab. Community and Mods will review your correction and vote to approve or reject it.
comments
We did not receive enough feedback on this tab! Please rate:
print report bad tab
1 2 3 4 5
I want to post or [tab]
guest
You may want to rate the tab now too:
select rating
Please do not post tabs as comments. Select "correction" instead!