Oops, an error
Loading. Please wait.

At Tragic Heights Bass Tab

483 views 1 this week
no commentswrite comment
1 2 3 4 5
please rate
add to favorites
launch autoscroll
font size
0
reset
guitar tuner
Tab Pro tools
  • play this tab
  • loop segment
  • change instrument
  • show fretboard
  • metronome
Autoscroll
slow
fast
+/-
esc
set tempo
stop
ARTIST:MOONSPELL
MUSIC:AT TRAGIC HEIGHTS (NIGHT ETERNAL,2008 UNIVERSAL TRACK 1 06:51)
BASS PLAYER:NICLAS ETELAVUORI/AIRES PEREIRA
BASS TAB:ANTÓNIO NARCISO (PT) EMAIL:GOTHBASS31@VAMPIREFREAKS.COM

Riff 1
E-0-0-0-0-2-2-2-2-0-3-3-3-3-0-5-5-5-5-|
A-------------------------------------|
D-------------------------------------|
G-------------------------------------|

Riff 2
E-0-0-0-0-0-0-0-0-0-0-2-2-2-2-2-2-2-2-2-2-3-3-3-3-3-3-3-3-3-3-5-5-5-5-5-5-5-5-5-5-|
A---------------------------------------------------------------------------------|
D---------------------------------------------------------------------------------|
G---------------------------------------------------------------------------------|

Riff 3
E-0-0-0-0-0-2-2-3-3-6-6-6-6-6-|
A-----------------------------|
D-----------------------------|
G-----------------------------|

Riff 4
E-0-0-0-0-0-0-8-8-7-0-0-0-0-0-0-8-8-7-0-0-0-0-0-0-8-8-----------------------------------|
A-----------------------------------------------------------------------7-7-7-7-6-6-4-4-|
D---------------------------------------------------------------------------------------|
G---------------------------------------------------------------------------------------|

Riff 5
E-0-0-0-0--|
A----------|
D----------|
G----------|

Riff 6
E-5-5-------------|
A------7----------|
D--------7-6-10-9-|
G-----------------|

Riff 7
E-5-5-------------|
A------7------8-7-|
D--------7-6------|
G-----------------|

Riff 8
E-5-5---------------|
A------7------------|
D--------7-6-10-9-7-|
G-------------------|

Riff 9
E-0-0-0-0-0-0-8-8-7-0-0-0-0-0-0-8-8-7-0-0-0-0-0-0-8-8-7-0-0-0-0-0-0-8-8-7-|
A-------------------------------------------------------------------------|
D-------------------------------------------------------------------------|
G-------------------------------------------------------------------------|

STRUCTURE:
RIFF 1 2X (01:46)
RIFF 2 2X (02:07)
RIFF 3 2X (02:21)
RIFF 4 4X (02:37)
RIFF 1 2X (03:06)
RIFF 4 4X (03:20)
RIFF 1 4X (03:49)
RIFF 5 …X (04:17)
RIFF 1 2X (04:49)
RIFF 2 2X (05:10)
RIFF 6 2X (05:24)
RIFF 7 1X (05:31)
RIFF 8 1X (05:35)
RIFF 4 2X (05:40)
RIFF 1 4X (05:54)
RIFF 9 1X (06:23)
comments
We did not receive enough feedback on this tab! Please rate:
print report bad tab
1 2 3 4 5
I want to post or [tab]
guest
You may want to rate the tab now too:
select rating
Please do not post tabs as comments. Select "correction" instead!