Oops, an error
Loading. Please wait.

Awake Bass Tab

version 2
version 2

Whole song

Interactive

162 views 1 this week
no commentswrite comment
1 2 3 4 5
please rate
add to favorites
launch autoscroll
font size
0
reset
guitar tuner
Autoscroll
slow
fast
+/-
esc
set tempo
stop
Help us to improve Ultimate-Guitar.com Take our survey!
×
Author
#--------------------------------PLEASE NOTE-----------------------------#
# This file is the author's own work and represents their interpretation of the #
# song. You may only use this file for private study, scholarship, or research. #
#-------------------------------------------------------------------------#

ARTIST:MOONSPELL
SONG:AWAKE
ALBUM:IRRELIGIOUS (TRACK 3,3:06,1996 CENTURY MEDIA)
MUSIC:MOONSPELL
LYRICS:FERNANDO RIBEIRO
BASS PLAYER:ARES (now singer on Deepskin)
BASS TABLATURE:NARCISO (PT) (GOTHBASS31@VAMPIREFREAKS.COM)

RIFF I
G|---------------------------------------------------------------------------------|
D|-----------------------------------------------------------------8-10----8-10----|
A|-7-7----7-7-2/-7-7-----7-7-------------------8/10--------------------------------|
E|------7---------------7-------2-/-8-8-10-8-8-------8-8-10-8-------8--------------|

RIFF II
G |-------------------------------------------------------------------------------------|
D |------------------------------------------------5----------5---------5---------------|
A |-------3----------3---10---5---3---10-3-3—3-3---3-3-3-3---3-3-3-3---3-3-3-3-3-3-3-3--|
E |-0-0-0---0-0-0-0---0----0---0---0----------------------------------------------------|

RIFF III
G |------------------------------------------------------------------------------------------|
D |---------------------------------------------------5----------5---------5-----------------|
A |-------3----------3---10----5----3----10-3-3—3-3---3-3-3-3---3-3-3-3---3-3-3-3-3-3-3-3----|
E |-0-0-0---0-0-0-0---0-----0----0----0---------------------------------------------------0--|

STRUCTURE:
RIFF I  (2X) (00:33)
RIFF II (2X) (01:05)
RIFF I  (2X) (01:37)
RIFF II (1X) (02:16)
RIFF III(1X) (02:33)

SYMBOLS:
/ SLIDE DOWN
Suggest correction
Give kudos to tab author, rate the tab!
1 2 3 4 5
comments
print report bad tab
guest
You may want to rate the tab now too:
select rating
Wanna post a correction for this tab? Suggest correction