Oops, an error
Loading. Please wait.

Capricorn At Her Feet Tab

version 2
version 2

Intro

Whole song

Interactive

503 views 1 this week
no commentswrite comment
1 2 3 4 5
2 more votes to show rating
add to favorites
launch autoscroll
font size
0
reset
how to read this tab
guitar tuner
Autoscroll
slow
fast
+/-
esc
set tempo
stop
Help us to improve Ultimate-Guitar.com Take our survey!
×
Difficulty
intermediate
This is a slightly altered version of the intro but it still sounds OK.


|------------------------------------------|
|------------------------------------------|
|------------------------------------------|
|---245--55542--245-55243--245-55542-------|
|-2----3------2----3-----2----3------------|
|--0-----------0----------0----------------|

|------------500700999---------------------|
|------------500700999---------------------|
|------------500700999---------------------|
|---245-55578500700999---------------------|
|-2----3-----500700999---------------------|
|--0---------000000000---------------------|

And that's it! If you happen to seek out any errors of any sort, feel free to email me 
raindogs85@excite.com
Suggest correction
Give kudos to tab author, rate the tab!
1 2 3 4 5
comments
print report bad tab
guest
You may want to rate the tab now too:
select rating
Wanna post a correction for this tab? Suggest correction