Oops, an error
Loading. Please wait.

Chorai Lusitnia Tab

800 views 1 this week
no commentswrite comment
1 2 3 4 5
please rate
add to favorites
launch autoscroll
font size
0
reset
how to read this tab
guitar tuner
Autoscroll
slow
fast
+/-
esc
set tempo
stop
Help us to improve Ultimate-Guitar.com Take our survey!
×
Author
Difficulty
novice
Song : Chorai Lusitânia! (Epilogus/Incantatum Maresia)
Band : Moonspell
Album : Under Satanae
Year: 2007
Genre : Experimental Black Metal
Tuning : EADGBe
Tabbed by : Valenten
Note : you'll get the rhythm while listening to the song. it's very easy.


e|-----------------------------------------------|
B|-----------------------------------------------|
G|--4-6---4-6-4-6---4-6-4-7---4-7-4-7---4-7-4-6--|
D|-----------------------------------------------|
A|-----------------------------------------------|
E|-----------------------------------------------|


e|---------------------------------------------|
B|---------------------------------------------|
G|--4-6-4-6---4-6-4-7--4-7-4-7---4-6-4-6-7--4--|
D|---------------------------------------------|
A|---------------------------------------------|
E|---------------------------------------------|


e|-------------------------------------------|
B|-------------------------------------------|
G|--7-4-7-4--7--7-6-4--6-4-6-4--6--4-6-7--4--|
D|-------------------------------------------|
A|-------------------------------------------|
E|-------------------------------------------|


e|-------------------------------------------|
B|-------------------------------------------|
G|--7-4-7-4--7--7-6-4--6-4-6-4--6--6-7-9--4--|
D|-------------------------------------------|
A|-------------------------------------------|
E|-------------------------------------------|


e|-------------------------------------------|
B|-------------------------------------------|
G|--4-6-4-6---4-6-4-7---4-7-4-7---4-6-7-9-4--|
D|-------------------------------------------|
A|-------------------------------------------|
E|-------------------------------------------|


e|----------------------------------------------|
B|----------------------------------------------|
G|--4-6-4-6---4-6-4-7---4-7-4-7---4-6-4-6-7--4--|
D|----------------------------------------------|
A|----------------------------------------------|
E|----------------------------------------------|


e|-----------------------------------------------|
B|-----------------------------------------------|
G|--7-4-7-4--7--7-6-4--6-4-6-4--6-4-6-7--4-7--4--|
D|-----------------------------------------------|
A|-----------------------------------------------|
E|-----------------------------------------------|


e|-----------------------------------|
B|-----------------------------------|
G|--7-4--7-6-4--6-4-6-4--6--6-7-9-4--|
D|-----------------------------------|
A|-----------------------------------|
E|-----------------------------------|


e|-------------------------------------------|
B|-------------------------------------------|
G|--4-6-4-6---4-6-4-7---4-7-4-7---4-6-7-9-4--|
D|-------------------------------------------|
A|-------------------------------------------|
E|-------------------------------------------|

                        rall.              B5
e|------------------------------------------------|
B|------------------------------------------------|
G|--4-6-4-6---4-6-4-7---4-7-4-7---4-6-7-9------4--|
D|-------------------------------------------4----|
A|-----------------------------------------2------|
E|------------------------------------------------|
Suggest correction
What's this?
You can suggest a correction to this tab. Community and Mods will review your correction and vote to approve or reject it.
comments
We did not receive enough feedback on this tab! Please rate:
print report bad tab
1 2 3 4 5
guest
You may want to rate the tab now too:
select rating
Please do not post tabs as comments. Select "correction" instead!