Oops, an error
Loading. Please wait.

Dekadence Bass Tab

226 views 1 this week
no commentswrite comment
1 2 3 4 5
please rate
add to favorites
launch autoscroll
font size
0
reset
guitar tuner
Autoscroll
slow
fast
+/-
esc
set tempo
stop
Help us to improve Ultimate-Guitar.com Take our survey!
×
Author
#-----------------------------PLEASE NOTE-------------------------------# 
# This file is the author's own work and represents their interpretation of the # 
# song. You may only use this file for private study, scholarship, or research. # 
#-------------------------------------------------------------------------# 

ARTIST:MOONSPELL 
SONG:DEKADANCE 
ALBUM:SIN (PECADO) (TRACK 10,05:49,1997 CENTURY MEDIA) 
MUSIC:MOONSPELL 
LYRICS:FERNANDO RIBEIRO 
BASS PLAYER:SÉRGIO CRESTANA 
BASS TABLATURE:NARCISO (PT) (GOTHBASS31@VAMPIREFREAKS.COM) 

RIFF I 
G|----------------------------------------------------| 
D|----------------------------------------------------| 
A|-5--5--5-5-5--5—-5--5-5-5---------------3--3--3-3-3-| 
E|---------------------------5--5--5-5-5--------------| 

RIFF II 
G|-----------------------------------------------------| 
D|-----------------------------------------------------| 
A|-5—-5--5-5-5--5—-5--5-5-5-------------3--3--3-3-3-5R-| 
E|--------------------------5—-5--5-5-5----------------| 

RIFF III 
G|-------------------| 
D|-----------------3-| 
A|-5—5-5-5-5-5-5-5---| 
E|-------------------| 

RIFF IV 
G|-------------------| 
D|-------------------| 
A|-5—5-5-5-5-5-5-5-3-| 
E|-------------------| 

RIFF V 
G|---------------------------------| 
D|---------------------------------| 
A|-5—5----5-5----5-5----5-5-5—-5-5-| 
E|---------------------------------| 

RIFF VI 
G|----------------------------------------------------------| 
D|--------------------------3-3-3-3-3-3-3-3-7-7-7-7-7-7-7-7-| 
A|-5--5--5-5-5--5--5--5-5-5---------------------------------| 
E|----------------------------------------------------------| 

RIFF VII 
G|------------------------------------------------------------| 
D|--------------------------3-3-3-3-3-3-3-3-7-7-7-7-7-7-7-7---| 
A|-5—-5--5-5-5—-5—-5--5-5-5---------------------------------5-| 
E|------------------------------------------------------------| 

RIFF VIII 
G|-----------------------------------------------------------------| 
D|-----------------------------------------------------------------| 
A|-5-5-5-5-5-5-5-5-5-5-5-5-5-5-5-5---------------------------------| 
E|---------------------------------1-1-1-1-1-1-1-1-5-5-5-5-5-5-5-5-| 

RIFF IX 
G|------------------------------------------------| 
D|------------------------------------------------| 
A|-5--5--5--5—-5--5--5--5-------------------------| 
E|-------------------------1--1—-1-—1——5—-5--5--5-| 

RIFF X 
G|-----------------------| 
D|-----------------------| 
A|-5—5-5-5-5-5-5-5-3-5-5-| 
E|-----------------------| 

STRUCTURE: 
RIFF I  (3X) (00:40)
RIFF II (1X) (01:12) 
RIFF III(3X) (01:20) 
RIFF IV (1X) (01:33) 
RIFF III(3X) (01:36) 
RIFF IV (1X) (01:41) 
RIFF III(3X) (01:46) 
RIFF IV (1X) (01:51) 
RIFF III(3X) (01:54) 
RIFF IV (1X) (01:57) 
RIFF I  (2X) (01:59) 
RIFF V  (3X) (02:15) 
RIFF III(3X) (02:24) 
RIFF IV (1X) (02:29) 
RIFF III(3X) (02:32) 
RIFF IV (1X) (02:37) 
RIFF III(3X) (02:40) 
RIFF IV (1X) (02:45) 
RIFF III(3X) (02:48)
RIFF IV (1X) (02:53) 
RIFF VI (3X) (02:56) 
RIFF VII(1X) (03:19) 
RIFF VIII(4X)(03:35) 
RIFF V   (1X)(04:00) 
RIFF I   (6X)(04:15) 
RIFF IX  (2X)(04:47) 
RIFF III (3X)(05:03) 
RIFF IV  (1X)(05:09) 
RIFF III (3X)(05:11) 
RIFF X   (1X)(05:17) 

SYMBOLS: 
R:REST
Suggest correction
Give kudos to tab author, rate the tab!
1 2 3 4 5
comments
print report bad tab
guest
You may want to rate the tab now too:
select rating
Please do not post tabs as comments. Select "correction" instead!