Oops, an error
Loading. Please wait.

Disappear Here Bass Tab

172 views 1 this week
no commentswrite comment
1 2 3 4 5
please rate
add to favorites
launch autoscroll
font size
0
reset
guitar tuner
Autoscroll
slow
fast
+/-
esc
set tempo
stop
Help us to improve Ultimate-Guitar.com Take our survey!
×
ARTIST:MOONSPELL
MUSIC:DISAPPEAR HERE (BUTTERFLY EFFECT 1999 CENTURY MEDIA TRACK 8 03:33)
BASS PLAYER:SÉRGIO CRESTANA
BASS TABLATURE:ANTÓNIO NARCISO (PT) EMAIL:GOTHBASS31@VAMPIREFREAKS.COM

RIFF 1
E-5-6-7-7-7-5-7-8-8-8-|
A---------------------|
D---------------------|
G---------------------|

RIFF 2
E-5-5-5-5------------|
A------------3-3-3-3-|
D--------------------|
G--------------------|

RIFF 3
E-------------------------------------5-5-5-5-|
A-7-5-7-5-7-5-8-7-8-7-8-7-7-5-7-5-7-5---------|
D---------------------------------------------|
G---------------------------------------------|

RIFF 4
E-----------------|
A-6-6-6-6-8-8-8-8-|
D-----------------|
G-----------------|

STRUCTURE:
RIFF 1 …X (00:00)
RIFF 2 4X (00:37)
RIFF 3 2X (00:54)
RIFF 1 …X (01:13)
RIFF 3 2X (01:49)
RIFF 2 4X (02:15)
RIFF 3 6X (02:32)
RIFF 4 X (03:26)
RIFF 6…X (02:45)
comments
We did not receive enough feedback on this tab! Please rate:
print report bad tab
1 2 3 4 5
I want to post or [tab]
guest
You may want to rate the tab now too:
select rating
Please do not post tabs as comments. Select "correction" instead!