Oops, an error
Loading. Please wait.

Dreamless Bass Tab

705 views 1 this week
no commentswrite comment
1 2 3 4 5
please rate
add to favorites
launch autoscroll
font size
0
reset
guitar tuner
Autoscroll
slow
fast
+/-
esc
set tempo
stop
Help us to improve Ultimate-Guitar.com Take our survey!
×
ARTIST:MOONSPELL
MUSIC:DREAMLESS (NIGHT ETERNAL,2008 UNIVERSAL TRACK 7 05:16)
BASS PLAYER:NICLAS ETELAVUORI/AIRES PEREIRA
BASS TAB:ANTÓNIO NARCISO (PT) EMAIL:GOTHBASS31@VAMPIREFREAKS.COM

Riff 1
E-5-5-5-5-5-5-5-5----------|
A------------------8-8-8-8-|
D--------------------------|
G--------------------------|

Riff 2 -----------------------------------5-5-5-5-1-1-1-1-1-1-1-1-3-3-3-3-|
A-3-3-3-3-3-3-3-3-5-5-5-5-5-5-5-5-----------------------------------------|
D-------------------------------------------------------------------------|
G-------------------------------------------------------------------------|

Riff 3
E-0----|
A----3-|
D------|
G------|

Riff 4
E-----------------------------------------------------------------|
A-----------------------------------------------------------------|
D-----------------------------------------------------------------|
G-4-4-4-4-4-4-4-4-7-7-7-7-7-7-7-7-4-4-4-4-4-4-4-4-2-2-2-2-2-2-2-2-|

Riff 5
E-0-0-0-0-0-0-0-0-3-3-3-3-3-3-3-3-3-0-0-0-0-0-0-0-0-----|
A---------------------------------------------------5-5-|
D-------------------------------------------------------|
G-------------------------------------------------------|

Riff 6
E-5-5-5-5-5-5-----------|
A-------------3-5-------|
D-----------------2-3-3-|
G-----------------------|

Riff 7
E---------5-5-5-5-|
A-3-3-3-3---------|
D-----------------|
G-----------------|

RIFF 8
E-5-5-5-5-5-5-5-5-5-5--5--------------------5-|
A-------------------------5…-3-5----5-3-5-----|
D---------------------------------3-----------|
G---------------------------------------------|

STRUCTURE:
RIFF 1 4X (00:26)
RIFF 2 1X (00:42)
RIFF 3 4X (00:58)
RIFF 4 1X (01:14)
RIFF 5 1X (01:31)
RIFF 6 4X (01:38)
RIFF 7 1X (01:54)
RIFF 6 4X (01:58)
RIFF 2 1X (02:14)
RIFF 3 4X (02:30)
RIFF 2 2X (03:03)
RIFF 6 4X (03:18)
RIFF 7 1X (03:34)
RIFF 6 4X (03:38)
RIFF 5 1X (03:54)
RIFF 8 1X (04:02)
RIFF 6 4X (04:22)
RIFF  X (04:38)
Suggest correction
What's this?
You can suggest a correction to this tab. Community and Mods will review your correction and vote to approve or reject it.
comments
We did not receive enough feedback on this tab! Please rate:
print report bad tab
1 2 3 4 5
guest
You may want to rate the tab now too:
select rating
Please do not post tabs as comments. Select "correction" instead!