Oops, an error
Loading. Please wait.

Everything Invaded Tab

version 1
version 1

Solo

Whole song

Interactive

754 views 1 this week
no commentswrite comment
1 2 3 4 5
1 last vote to show rating
add to favorites
launch autoscroll
font size
0
reset
how to read this tab
guitar tuner
Autoscroll
slow
fast
+/-
esc
set tempo
stop
Help us to improve Ultimate-Guitar.com Take our survey!
×
Author
Difficulty
advanced
--------------------------------
Moonspell - Everything Invaded
--------------------------------
Tabbed by: Markus Rafferty
Email: stairsleadingup@gmail.com

video of the tab, so if it doesn't sound right, you're not playing it right!    
http://www.youtube.com/watch?v=gw8pOlPKO2M

|----------------------------------------------------------------------------|
|-15-----15---15-------13-------13------13---------15-----15---15------13----|
|-17b19--19---17b19----15b17----15b17---15b17r15---17b19--19---17b19---15b17-|
|----------------------------------------------------------------------------|
|----------------------------------------------------------------------------|
|----------------------------------------------------------------------------|

|----------------------------------------------------------------------------|
|---13------------------11/13--11--11-------11-----10-------10---------------|
|---15b17r15b17r15b17--------------14b15----14b15--12b14----12b14r12b14r12---|
|----------------------------------------------------------------------------|
|----------------------------------------------------------------------------|
|----------------------------------------------------------------------------|

|----------------------------------------------------------------------------|
|--13-----11-------11------------------15---------------------17----\--------|
|--15b17--14b15----14b15r14b15r14b15---17b19r17b19r17b19r17---19b21-\---/19~-|
|----------------------------------------------------------------------------|
|----------------------------------------------------------------------------|
|----------------------------------------------------------------------------|

|----------------------------------------------------------------------------|
|--18~-----18~-----18--20--18--17~---------17~-------------17~-----18~-------|
|------19~-----19~-----------------19~---------19~-----19~-----19~-----19~---|
|--------------------------------------19~---------19~-----------------------|
|----------------------------------------------------------------------------|
|----------------------------------------------------------------------------|

|---------------------------------------------17~----------------------------|
|-18~-----18~-----18--20--18--17~-----17~--------------------3--3------------|
|-----19~-----19~-----------------19~-----19~--------19-\-------5b7r5b7r5b7--|
|----------------------------------------------------------------------------|
|----------------------------------------------------------------------------|
|----------------------------------------------------------------------------|

|----------------------------------------------------------------------------|
|--6------5-------5-------------8-------6------6----------------8------------|
|--9b10---7b9-----7b9r7b9r7b9---10b12---9b10---9b10r9b10r9b10---10b12r10b12r-|
|----------------------------------------------------------------------------|
|----------------------------------------------------------------------------|
|----------------------------------------------------------------------------|

|----------------------------------------------------------------------------|
|-----------10------/15--18-15-18-15-13-15-.......-17-15-17-15-13-15-.......-|
|---10b12---12b14------------------------------------------------------------|
|----------------------------------------------------------------------------|
|----------------------------------------------------------------------------|
|----------------------------------------------------------------------------|

|-------------------------------------------------------------15-17-18-15-17-|
|-18-15-18-15-13-15-.......-17-15-17-15-13-15-......-15-17-18----------------|
|----------------------------------------------------------------------------|
|----------------------------------------------------------------------------|
|----------------------------------------------------------------------------|
|----------------------------------------------------------------------------|

|-15-------------------------------------------------------------------------|
|----18-20-18-17-18-17-15-------15-------15-------15-------15--18--17--18----|
|-------------------------17b19----17b19----17b19----17b19-------------------|
|----------------------------------------------------------------------------|
|----------------------------------------------------------------------------|
|----------------------------------------------------------------------------|

|---------------------------------------------------17-18-17-18-17-18--15-17-|
|-15-----15---------15--17--18--15h18p15--13--15~----------------------------|
|-17b19--17b19--17-----------------------------------------------------------|
|----------------------------------------------------------------------------|
|----------------------------------------------------------------------------|
|----------------------------------------------------------------------------|

|-15-17-15-17----------------------------------------------------------------|
|-------------18-20-18-20-18-20--17-18-17-18-17-18--15-17-15-17-15-17--------|
|----------------------------------------------------------------------17-19-|
|----------------------------------------------------------------------------|
|----------------------------------------------------------------------------|
|----------------------------------------------------------------------------|

|----------------------------------------------------------------------------|
|----------------------------------------------------------------------------|
|-17-15-17-15-14-15-14-12-12---(NB.-this-solo-is-played-with-delay,-which----|
|--------------------------------can-clearly-be-heard-here-at-the-end)-------|
|----------------------------------------------------------------------------|
|----------------------------------------------------------------------------|
Suggest correction
Give kudos to tab author, rate the tab!
1 2 3 4 5
comments
print report bad tab
guest
You may want to rate the tab now too:
select rating
Wanna post a correction for this tab? Suggest correction