Oops, an error
Loading. Please wait.

Finisterra Bass Tab

version 1
version 1

Whole song

Interactive

1,192 views 1 this week
no commentswrite comment
1 2 3 4 5
please rate
add to favorites
launch autoscroll
font size
0
reset
guitar tuner
Tab Pro tools
  • play this tab
  • loop segment
  • change instrument
  • show fretboard
  • metronome
×
Best way to learn
"Finisterra"
Autoscroll
slow
fast
+/-
esc
set tempo
stop
Contributor
-------------------------------------------------------------------------------
			     FINISTERRA - Moonspell
-------------------------------------------------------------------------------

Tabbed By : Crusheer
e-mail: crusheer@gmail.com
Tuning: Normal

Okay, this is somewhat easy though fun song to play. Moonspell often uses repetitions in 
song, so you can see many 3x/1x parts here.
I also made a YouTube video of this, so search for keywords "moonspell finisterra bass" ;-)
Enjoy!

3x  0:00-0:14 INTRO                 1x
G|--------------------------------| ----------------------------|
D|-------------------------------:| ----------------------------|
A|-------------------------------:| ----------------------------|
E|-0-0----0-0----0-0----00000000--| -0-0----0-0----0-0----0-0-0-|

4x  0:14-0:31 CHORUS V1   1x
G|----------------------| ---------|
D|-------------------6--| ---------|
A|-8---87---7--7---78-87| ---------|
E|---0----0------0------| -8---7---|

1x  0:32-0:39 VERSE
G|-----------------------------------------------------------------|
D|-----------------------------------------------------------------|
A|-0-0-0-0-3-3-2-2-0-0-0-0-3-3-2-2-----------------------------2-2-|
E|---------------------------------1-1-1-1-1-1-1-1-0-0-0-0-4-4-----|

1x  0:39-0:45 VERSE
G|-----------------------------------------------------------------|
D|-----------------------------------------------------------------|
A|-0-0-0-0-3-3-2-2-0-0-0-0-3-3-2-2-------------------------33332222|
E|---------------------------------1-1-1-1-1-1-1-1-0---0-----------|

1x  0:46-0:52 VERSE
G|-----------------------------------------------------------------|
D|-----------------------------------------------------------------|
A|-0-0-0-0-3-3-2-2-0-0-0-0-3-3-2-2-----------------------------2-2-|
E|---------------------------------1-1-1-1-1-1-1-1-0-0-0-0-4-4-----|

1x  0:53-0:59 VERSE
G|-----------------------------------------------------------------|
D|-----------------------------------------------------------------|
A|-0-0-0-0-3-3-2-2-0-0-0-0-3-3-2-2-----------------------------2-2-|
E|---------------------------------1-1-1-1-1-1-1-1-0-0-0-0-4-4-----|

3x  1:00-1:14 VERSE
G|----------------------------------|---------------------------------|
D|---------------------------6-----:|---------------------------------|
A|-----------------------7-8---8-7-:|---------------------------------|
E|-1-1-----1-1---0---0-0------------|-1-1-----1-1---0---0-0-0-0-0-0-0-|


1:14-1:35 - Chorus v1 with doubled last (added) part.
1:35-2:11 - Verse


3x  2:12-2:25 CHORUS V2   1x
G|----------------------| -------------------------|
D|-------------------6--| -------------------------|
A|-8---87---7--7---78-87| -8---87---7--7---7-7-7-7-|
E|---0----0------0------| ---0----0------0---------|

4x  2:26-2:39 CHORUS
G|----------------------|
D|-------------------6--|
A|-8---87---7--7---78-87|
E|---0----0------0------|

1x  2:40-2:54 BRIGDE (f****d up rythm)
G|------------------------------------------------------------------|
D|------------------------------------------------------------------|
A|------------------------------------------------------------------|
E|-0------7--8-----0------7--8------0------7--8-----0------7--8-----|

1x  2:55-3:01 BRIGDE
G|-----------------------------------------------------------------|
D|-----------------------------------------------------------------|
A|-----------------------------------------------------------------|
E|-3-3-3-3-3-3-3-3-2-2-2-2-2-2-2-2-5-5-5-5-5-5-5-5-0-0-0-0-0-0-0-0-|

1x  3:01-3:08 BRIDGE
G|-----------------------------------------------------------------|
D|-----------------------------------------------------------------|
A|-----------------------------------------------------------------|
E|-3-3-3-3-3-3-3-3-2-2-2-2-2-2-2-2-5-5-5-5-5-5-5-5-7-7-7-7-7-7-7-7-|

1x  3:09-3:15 BRIDGE
G|-----------------------------------------------------------------|
D|-----------------------------------------------------------------|
A|-----------------------------------------------------------------|
E|-3-3-3-3-3-3-3-3-2-2-2-2-2-2-2-2-5-5-5-5-5-5-5-5-0-0-0-0-0-0-0-0-|

1x  3:16-3:22 BRIDGE
G|-----------------------------------------------------------------|
D|-----------------------------------------------------------------|
A|-----------------------------------------------------------------|
E|-3-3-3-3-3-3-3-3-2-2-2-2-2-2-2-2-5-5-5-5-5-5-5-5-7-7-7-7-7-7-7-7-|

3x  3:23-3:36 PRE-CHORUS 1x
G|-----------------| -----------------|
D|-----------------| -----------------|
A|-----------------| -------------777-|
E|-0---0---0---0---| -0---0---0-------|

3x  3:37-3:51 PRE-CHORUS 1x
G|-----------------| -----------------|
D|-----------------| -----------------|
A|-----------------| -----------------|
E|-00--00--00--00--| -00--00--00--000-|

3x  3:51-4:07 CHORUS      1x
G|----------------------| -------------------------|
D|-------------------6--| -------------------------|
A|-8---87---7--7---78-87| -8---87---7--7---7-----7-|
E|---0----0------0------| ---0----0------0---0-0---|


===============================================================================
comments
We did not receive enough feedback on this tab! Please rate:
print report bad tab
1 2 3 4 5
I want to post or [tab]
guest
You may want to rate the tab now too:
select rating
Please do not post tabs as comments. Select "correction" instead!