Oops, an error
Loading. Please wait.

Finisterra Tab

version 1
version 1

Whole song

Interactive

1,383 views 3 this week
no commentswrite comment
1 2 3 4 5
please rate
add to favorites
launch autoscroll
font size
0
reset
how to read this tab
guitar tuner
Tab Pro tools
  • play this tab
  • loop segment
  • change instrument
  • show fretboard
  • metronome
×
Best way to learn
"Finisterra"
Autoscroll
slow
fast
+/-
esc
set tempo
stop
Contributor
Difficulty
novice
=====================================
              Moonspell
             Finisterra
Track #2 on the 2006 album "Memorial"
=====================================

Tabbed by Pedro Macedo, A.K.A. Linkerman
Comments and ratings are very much appreciated!
Send a PM or e-mail me to "o_samaritano-hellboy(at)sapo.pt"

Standard tuning


Intro/Chorus
e|-----------------------------|
B|-----------------------------|
G|-----------------------------| x4
D|-----------------------6-----|
A|-8-----8-7---7-7---7-8---8-7-|
E|---0-0-----0-----0-----------|

Fill 1
e|-------|
B|-------|
G|-------|
D|-2-2-2-|
A|-2-2-2-|
E|-0-0-0-|

Play Intro x4

Fill 2
e|-------------------|
B|-------------------|
G|-------------------|
D|-5--5-----4--4-----|
A|-5--5-----4--4-----|
E|-3--3-x-x-2--2-x-x-|


Verse
e|-------------------------------------------------------|
B|-------------------------------------------------------|
G|-------------------------------------------------------|
D|-7777-10101010-9999-7777-10101010-9999-----------77-99-|
A|---------------------------------------8888-7777-------|
E|-------------------------------------------------------|

e|-------------------------------------------------------|
B|-------------------------------------------------------|
G|-------------------------------------------------------|
D|-7777-10101010-9999-7777-10101010-9999------2-2--------|
A|---------------------------------------8888-2-2--33-22-|
E|--------------------------------------------0-0--------|

e|-------------------------------------------------------|
B|-------------------------------------------------------|
G|-------------------------------------------------------| x2
D|-7777-10101010-9999-7777-10101010-9999-----------77-99-|
A|---------------------------------------8888-7777-------|
E|-------------------------------------------------------|


Pre-chorus
e|------------------------|
B|------------------------|
G|------------------------| x3,5
D|-3-3---3-3-2------2-----|
A|-3-3---3-3-2--2-3---3-2-|
E|-1-1-x-1-1-0------------|


Play Fill 1
Play Chorus x4
Play Fill 2 (one hit per chord) x2

Play Verse (but start on the 2nd bar)
Play Pre-chorus x3,5
Play Chorus x4
Play Fill 1
Play Chorus x4


Break (lead)
e|---------------------------------|-8-7-----8-7-----8-7-----8-7-----|
B|---8-------8---8---8---8---8---8-|---------------------------------|
G|-----9-------9-------9-------9---|-----9-------9-------9-------9---| x2
D|-9-----9-9-------9-------9-------|-------9-------9-------9-------9-|
A|---------------------------------|---------------------------------|
E|---------------------------------|---------------------------------|

e|-8-7------8-7------8-7-----8-7-----|
B|-----------------------------------|
G|-----9--------9--------9-------9---| x8
D|-------10-------10-------9-------9-|
A|-----------------------------------|
E|-----------------------------------|

Break (rhythm)
e|-----------------|-----------------|
B|-----------------|-----------------|
G|-----------------|-----------------| x2
D|-5~~-4~~-7~~-2~~-|-5~~-4~~-7~~-9~~-|
A|-5~~-4~~-7~~-2~~-|-5~~-4~~-7~~-9~~-|
E|-3~~-2~~-5~~-0~~-|-3~~-2~~-5~~-7~~-|


Play Chorus x4 \
                > x3
Play Fill 1    /
comments
We did not receive enough feedback on this tab! Please rate:
print report bad tab
1 2 3 4 5
I want to post or [tab]
guest
You may want to rate the tab now too:
select rating
Please do not post tabs as comments. Select "correction" instead!