Oops, an error
Loading. Please wait.

For A Taste Of Eternity Bass Tab

version 1
version 1

Whole song

Interactive

211 views 1 this week
no commentswrite comment
1 2 3 4 5
please rate
add to favorites
launch autoscroll
font size
0
reset
guitar tuner
Tab Pro tools
  • play this tab
  • loop segment
  • change instrument
  • show fretboard
  • metronome
Autoscroll
slow
fast
+/-
esc
set tempo
stop
Contributor
#---------------------------------------PLEASE NOTE------------------------------------# 
# THIS FILE IS THE AUTHOR'S OWN WORK AND REPRESENTS THEIR INTERPRETATION OF THE # 
# SONG. YOU MAY ONLY USE THIS FILE FOR PRIVATE STUDY, SCHOLARSHIP, OR RESEARCH. # 
#---------------------------------------------------------------------------------------# 

ARTIST:MOONSPELL 
SONG:FOR A TASTE OF ETERNITY 
ÁLBUM:IRRELIGIOUS (TRACK 4,03:53,1996 CENTURY MEDIA) 
MUSIC:MOONSPELL 
LYRICS:FERNANDO RIBEIRO 
BASS PLAYER:ARES (now singer on Deepskin) 
BASS TABLATURE:NARCISO (GOTHBAS31@HOTMAIL.COM) 

RIFF I 
G|------------------------------------------------------------------------------------| 
D|------------------------------------------------------------------------------------| 
A|------------------3-3-3-3-3-3-3-3---------------------------------------------------| 
E|-5-5-5-5-5-5-5-5------------------0-0-0-0-0-0-0-0-0-0-0-0-0-0-0-0-3-3-3-2-2-2-3-3-3-| 

RIFF II 
G|------------------------------| 
D|------------------------------| 
A|--------------5-5-5-5-7-5-3-2-| 
E|-1-1-1-1-1-1------------------| 

RIFF III 
G|-------------------------------------------------------| 
D|-------------------------------------------------------| 
A|---------3-3-3-3-7-7-7-7-8-7-5-----------------3-5-7-5-| 
E|-5-5-5-5-----------------------1-1-1-1-1-1-1-1---------| 

STRUCTURE: 
RIFF I (4X) (00:00) 
RIFF II(2X) (00:31) 
RIFF III(4X)(00:45) 
RIFF I (4X) (01:17) 
RIFF II(2X) (01:47) 
RIFF III(4X)(02:03) 
RIFF I (3X) (03:22) 
RIFF I (1X) (03:45)
comments
We did not receive enough feedback on this tab! Please rate:
print report bad tab
1 2 3 4 5
I want to post or [tab]
guest
You may want to rate the tab now too:
select rating
Please do not post tabs as comments. Select "correction" instead!