Oops, an error
Loading. Please wait.

From Lowering Skies Bass Tab

version 1
version 1

Whole song

Interactive

187 views 1 this week
no commentswrite comment
1 2 3 4 5
please rate
add to favorites
launch autoscroll
font size
0
reset
guitar tuner
Autoscroll
slow
fast
+/-
esc
set tempo
stop
Help us to improve Ultimate-Guitar.com Take our survey!
×
Author
ARTIST:MOONSPELL
MUSIC:FROM LOWERING SKIES (THE ANTIDOTE,2003 CENTURY MEDIA,TRACK 2 5:24)
BASS PLAYER:NICLAS ETELAVUORI
BASS TABLATURE:ANTÓNIO NARCISO (PT) Email:GOTHBASS31@VAMPIREFREAKS.COM
RIFF 1
E--------------------------------------------------------|
A-7-7-7-7-7-7-5-7-8-8-8-8-8-10-8-7-7-7-7-7-7-3-3-3-5-5-5-|
D--------------------------------------------------------|
G--------------------------------------------------------|

RIFF 2
E-7-7-7-7-7-7-5-7-8-8-8-8-8-------8------8-|
A----------------------------7-8----7-8----|
D------------------------------------------|
G------------------------------------------|

RIFF 3
E-7-7-7-7-7-7-3-5-|
A-----------------|
D-----------------|
G-----------------|

STRUCTURE:
RIFF 1 4X (00:54)
RIFF 2 3X (02:10)
RIFF 3 1X (02:34)
RIFF 1 3X (02:41)
RIFF 2 3X (03:27)
RIFF 3 1X (03:50)
RIFF 1 2X (04:13)
RIFF 2 3X (04:44)
RIFF 3 1X (05:07)
Suggest correction
Give kudos to tab author, rate the tab!
1 2 3 4 5
comments
print report bad tab
guest
You may want to rate the tab now too:
select rating
Wanna post a correction for this tab? Suggest correction