Oops, an error
Loading. Please wait.

Full Moon Madness Bass Tab

version 1
version 1

Whole song

Interactive

485 views 1 this week
no commentswrite comment
1 2 3 4 5
please rate
add to favorites
launch autoscroll
font size
0
reset
guitar tuner
Autoscroll
slow
fast
+/-
esc
set tempo
stop
Help us to improve Ultimate-Guitar.com Take our survey!
×
Author
#--------------------------------------PLEASE NOTE-------------------------------------# 
# THIS FILE IS THE AUTHOR'S OWN WORK AND REPRESENTS THEIR INTERPRETATION OF THE # 
# SONG. YOU MAY ONLY USE THIS FILE FOR PRIVATE STUDY, SCHOLARSHIP, OR RESEARCH. # 
#---------------------------------------------------------------------------------------# 

ARTIST:MOONSPELL 
SONG:FULL MOON MADNESS 
ALBUM:IRRELIGIOUS (TRACK 11,6:47,1996 CENTURY MEDIA) 
MUSIC:MOONSPELL 
LYRICS:FERNANDO RIBEIRO 
BASS PLAYER:ARES (now singer on deepskin) 
BASS TABLATURE:NARCISO (GOTHBASS31@HOTMAIL.COM) 

RIFF I 
G|-------------------------------------------------| 
D|-------------------------------------------------| 
A|-------------------------3--3--3-----5--5--5-----| 
E|-0—-0-—0-3-2-0—-0--0-3-2---------3-2---------3-2-| 

RIFF II 
G|-------------------------------| 
D|-------------------------------| 
A|-------------------------------| 
E|-5-5-5-5-5-5-5-5-5-5-5-5-5-5\8-| 

RIFF III 
G|-------------------------------| 
D|-------------------------------| 
A|-5-5-5-5-5-5-5-7-7-7-7-8-8-8-8-| 
E|-------------------------------| 

RIFF IV 
G|-----------------------------------| 
D|-----------------------------------| 
A|-----------------------------------| 
E|-5-5-5-5-5-5-5-5-5-5-5-5-5-5-6-6-6-| 

STRUCTURE: 
RIFF I (2X) (01:09) 
RIFF II(4X) (02:00) 
RIFF III(2X)(02:1) 
RIFF I  (2X)(02:26) 
RIFF II (8X)(03:00) 
RIFF III(2X)(03:35) 
RIFF I  (2X)(03:44) 
RIFF IV (4X)(04:19) 
RIFF III(2X)(04:36) 
RIFF IV (4X)(04:45) 
RIFF I (5X) (05:02) 

SYMBOLS: 
\:SLIDE DOWN 

 
Suggest correction
Give kudos to tab author, rate the tab!
1 2 3 4 5
comments
print report bad tab
guest
You may want to rate the tab now too:
select rating
Please do not post tabs as comments. Select "correction" instead!