Oops, an error
Loading. Please wait.

Goat On Fire Bass Tab

version 1
version 1

Whole song

Interactive

165 views 1 this week
no commentswrite comment
1 2 3 4 5
please rate
add to favorites
launch autoscroll
font size
0
reset
guitar tuner
Autoscroll
slow
fast
+/-
esc
set tempo
stop
Help us to improve Ultimate-Guitar.com Take our survey!
×
Author
Difficulty
intermediate
ARTIST:MOONSPELL
MUSIC:GOAT ON FIRE (UNDER SATANAE,2007 UNIVERSAL TRACK 7 06:34)
BASS PLAYER:AIRES PEREIRA
BASS TAB:ANTÓNIO NARCISO (PT) EMAIL:GOTHBASS31@VAMPIREFREAKS.COM

RIFF 1
E-0-0-0-0-0-0-0-0-0-0-0-0-0-0-0-0-1-1-1-1-1-1-1-1-1-1-1-1-1-1-1-1-|
A-----------------------------------------------------------------|
D-----------------------------------------------------------------|
G-----------------------------------------------------------------|

RIFF 2
E-3-3-3-3-3-3-3-3-2-2-2-2-2-2-2-2-|
A---------------------------------|
D---------------------------------|
G---------------------------------|

RIFF 3
E-3-3-3-3---------3-3-3-3---------2-2-2-2-2-2-2-2-2-2-|
A---------3-3-5-5---------3-3-5-5---------------------|
D-----------------------------------------------------|
G-----------------------------------------------------|

RIFF 4
E-5-5-5-5-5-5-------------|
A-------------4-4-4-4-4-4-|
D-------------------------|
G-------------------------|

RIFF 5
E-5-5-5-5-5-5-5-5-5-5-5-5-5-5-5-5-7-7-4-4-4-4-4-4-4-4-4-4-4-4-4-4-4-4-7-7-|
A-------------------------------------------------------------------------|
D-------------------------------------------------------------------------|
G-------------------------------------------------------------------------|

STRUCTURE:
RIFF 1 2X (01:08)
RIFF 2 2X (02:00)
RIFF 3 4X (02:14)
RIFF 4 10X (02:42)
RIFF 5 8X (03:57)
RIFF 2 2X (04:43)
RIFF 3 4X (04:56)
RIFF 4 2X (05:23)
RIFF 4 2X (05:49)
Suggest correction
Give kudos to tab author, rate the tab!
1 2 3 4 5
comments
print report bad tab
guest
You may want to rate the tab now too:
select rating
Please do not post tabs as comments. Select "correction" instead!