Oops, an error
Loading. Please wait.

Hers Is The Twilight Bass Tab

version 1
version 1

Whole song

Interactive

244 views 1 this week
no commentswrite comment
1 2 3 4 5
please rate
add to favorites
launch autoscroll
font size
0
reset
guitar tuner
Autoscroll
slow
fast
+/-
esc
set tempo
stop
Help us to improve Ultimate-Guitar.com Take our survey!
×
ARTIST:MOONSPELL
MUSIC:HERS IN THE TWILIGHT (NIGHT ETERNAL,2008 UNIVERSAL TRACK 6 04:53)
BASS PLAYER:NICLAS ETELAVUORI/AIRES PEREIRA
BASS TAB:ANTÓNIO NARCISO (PT) EMAIL:GOTHBASS31@VAMPIREFREAKS.COM

Riff 1
E-5-5-5-5-5-5-5-5-0-3-5-5-5-5-5-5-5-5-7-|
A---------------------------------------|
D---------------------------------------|
G---------------------------------------|

Riff 2
E-5-5-5-5-5-5-5-5-0-3-5-5-5-----------7-7---------|
A----------------------------5-5-5-5--------------|
D-------------------------------------------8---8-|
G---------------------------------------------8---|

Riff 3
E-5-5-5-5-|
A---------|
D---------|
G---------|

Riff 4
E-5-5---5-5----5-5-7-8-5-5---5-5-1-1-1-1-3-3-3-3-|
A-----7------7-------------7---------------------|
D------------------------------------------------|
G------------------------------------------------|

Riff 5
E-5-5-5-5-5-5-5-5--------------------------|
A------------------3-3-3-3-3-3-5-5-5-5-5-5-|
D------------------------------------------|
G------------------------------------------|

Riff 6
E---------------------5-5-|
A-8-7-5-7-5-3-7-7-8-5-----|
D-------------------------|
G-------------------------|

Riff 7
E-5-5-5-5-5-5-5-5-0-3-5-5-5-5-1-1-1-1--3-3-3-3-5-5-5-5-5-5-5-5-1-1-1-1-3-3-3-3---|
A--------------------------------------------------------------------------------|
D--------------------------------------------------------------------------------|
G--------------------------------------------------------------------------------|

RIFF 8
E-5-5-5-5-5-5-5-5-0-3-5-5-5-5-1-1-1-1--3-3-3-3-5-5-5-5-5-5-5-5-1-1-1-1-3-3-3-3-3-3-3-3---|
A----------------------------------------------------------------------------------------|
D----------------------------------------------------------------------------------------|
G----------------------------------------------------------------------------------------|

RIFF 9
E-2-2-2-2-2-2-3-3-3-3-3-3---------------|
A-------------------------3-3-3-3-3-3-3-|
D---------------------------------------|
G---------------------------------------|

STRUCTURE:
RIFF 1 1X (00:10)
RIFF 2 1X (00:16)
RIFF 1 1X (00:14)
RIFF 2 1X (00:27)
RIFF 3 1X (00:32)
RIFF 4 4X (00:35)
RIFF 5  X (01:07)
RIFF 6 1X (01:23)
RIFF 7 1X (01:28)
RIFF 8 1X (01:39)
RIFF 7 2X (01:51)
RIFF 5 4X (02:12)
RIFF 6 2X (02:28)
RIFF 9 6X (02:39)
RIFF 7 1X (03:11)
RIFF 8 1X (03:21)
RIFF 5 3X (03:32)
RIFF 6 2X (03:48)
RIFF 7 4X (03:59)
Suggest correction
Give kudos to tab author, rate the tab!
1 2 3 4 5
comments
print report bad tab
guest
You may want to rate the tab now too:
select rating
Please do not post tabs as comments. Select "correction" instead!