Oops, an error
Loading. Please wait.

I Am The Eternal Spectator Bass Tab

133 views 1 this week
no commentswrite comment
1 2 3 4 5
please rate
add to favorites
launch autoscroll
font size
0
reset
guitar tuner
Autoscroll
slow
fast
+/-
esc
set tempo
stop
Help us to improve Ultimate-Guitar.com Take our survey!
×
ARTIST:MOONSPELL
MUSIC:I AM THE ETERNAL SPECTATOR (BUTTERFLY EFFECT 1999 CENTURY MEDIA TRACK 6 03:31)
BASS PLAYER:SÉRGIO CRESTANA
BASS TABLATURE:ANTÓNIO NARCISO (PT) EMAIL:GOTHBASS31@VAMPIREFREAKS.COM

RIFF 1
E-3-3-3-3-3-3-5-5-5-0-0-0-0-0-0-|
A-------------------------------|
D-------------------------------|
G-------------------------------|

RIFF 2
E-3-3-3-3-3-3-5-5-5-0-|
A---------------------|
D---------------------|
G---------------------|

RIFF 3
E-5-5-5-5-5-5-3-3-3-3-3-3---------------------|
A-------------------------3-3-5-5-5-5-5-5-5-5-|
D---------------------------------------------|
G---------------------------------------------|

RIFF 4
E-5-5-3-3------------------------|
A------------3-3-5-5-5-5-5-5-5-5-|
D--------------------------------|
G--------------------------------|

RIFF 5
E-5-5-5-5-5-5-5-5-5-5-5-5-5-5-5-5-5-5-5-5-5-5-5-5-5-5-5-5-5-5-5-5-5-5-|
A---------------------------------------------------------------------|
D---------------------------------------------------------------------|
G---------------------------------------------------------------------|

RIFF 6
E-5-0-3-5-3-5-7-------0-3------0-3-5-|
A----------------3-5-------3-5-------|
D------------------------------------|
G------------------------------------|

STRUCTURE:
RIFF 1 4X (00:28)
RIFF 1 4X (00:37)
RIFF 1 3X (00:55)
RIFF 2 1X (01:04)
RIFF 3 2X (01:08)
RIFF 4  X (01:21)
RIFF 1 2X (01:34)
RIFF 5 1X (01:54)
RIFF 1 4X (02:08)
RIFF 3 2X (02:20)
RIFF 4 2X (02:34)
RIFF 3 2X (02:47)
RIFF 6 2X (03:07
Suggest correction
Give kudos to tab author, rate the tab!
1 2 3 4 5
comments
print report bad tab
guest
You may want to rate the tab now too:
select rating
Please do not post tabs as comments. Select "correction" instead!