Oops, an error
Loading. Please wait.

In And Above Man Bass Tab

211 views 1 this week
no commentswrite comment
1 2 3 4 5
please rate
add to favorites
launch autoscroll
font size
0
reset
guitar tuner
Autoscroll
slow
fast
+/-
esc
set tempo
stop
Help us to improve Ultimate-Guitar.com Take our survey!
×
Author
Difficulty
intermediate
ARTIST:MOONSPELL
MUSIC:IN AND ABOVE MEN (THE ANTIDOTE,2003 CENTURY MEDIA TRACK 1 04:11)
BASS PLAYER:NICLAS ETELAUVORI
BASS TAB:NARCISO EMAIL:GOTHBASS31@VAMPIREFREAKS.COM

RIFF 1
E-0-0-5-1-3-0-0-5-1-3-1-|
A-----------------------|
D-----------------------|
G-----------------------|

RIFF 2
E-0-0-5-1-3-0-0-5-1-3-1-0-0-1-1-1-|
A---------------------------------|
D---------------------------------|
G---------------------------------|

RIFF 3
E-0-0-0-0-0-0-0-0-0-0-5-5-5-5-8-8-8-8-0-0-0-0-0-0-0-0-1-1-1-1-0-0-0-0-1-1-1-1-0-|
A-------------------------------------------------------------------------------|
D-------------------------------------------------------------------------------|
G-------------------------------------------------------------------------------|

RIFF 4
E-7-7-7-5-5-4-4-|
A---------------|
D---------------|
G---------------|

STRUCTURE:
RIFF 1 3X (00:19)
RIFF 2 1X (00:31)
RIFF 3 2X (00:44)
RIFF 1 2X (01:22)
RIFF 2 1X (01:34)
RIFF 3 1X (01:44)
RIFF 1 4X (02:03)
RIFF 3 2X (02:18)
RIFF 1 2X (02:53)
RIFF 4 16X (03:10)
Suggest correction
What's this?
You can suggest a correction to this tab. Community and Mods will review your correction and vote to approve or reject it.
comments
We did not receive enough feedback on this tab! Please rate:
print report bad tab
1 2 3 4 5
guest
You may want to rate the tab now too:
select rating
Please do not post tabs as comments. Select "correction" instead!