Oops, an error
Loading. Please wait.

Let The Children Cum To Me Bass Tab

263 views 1 this week
no commentswrite comment
1 2 3 4 5
3 more votes to show rating
add to favorites
launch autoscroll
font size
0
reset
guitar tuner
Autoscroll
slow
fast
+/-
esc
set tempo
stop
Help us to improve Ultimate-Guitar.com Take our survey!
×
Author
Difficulty
RIFF I
G|-----------------------------------------------------------------|
D|-----------------------------------------------------------------|
A|-------------------------------------------------5-5-5-5-5-5-5-5-|
E|-5-5-5-5-5-5-5-5-5-5-5-5-5-5-5-5-0-0-0-0-0-0-0-0-----------------|

RIFF II
G|--------------------------------------------------|
D|--------------------------------------------------|
A|-------------------------------------------5-5—-5-|
E|-5-5--5-5--5-3-3--3-0-0--0-5-5--5-5--5-3-3--------|

RIFF III
G|----------------------------------------------------------|
D|----------------------------------------------------------|
A|-----------------------------------------55555555---------|
E|-5555555533333333000000005555555533333333-----------------|

RIFF IV
G|-----------------------------------------------------------------|
D|-----------------------------------------------------------------|
A|-----------------------------------------------------------------|
E|-1-1-1-1-1-1-1-1-1-1-1-1-1-1-1-1-3-3-3-3-3-3-3-3-0-0-0-0-0-0-0-0-|

RIFF V
G|----------------------------------------------------|
D|----------------------------------------------------|
A|-------------------------------------------5-5—-5---|
E|-5-5--5-5--5-3-3--3-0-0--0-5-5--5-5--5-3-3--------5-|

RIFF VI
G|---------------------|
D|---7-----7-----7-5---|
A|-0---0-0---5-7-------|
E|-------------------5-|

RIFF VII
G|------------------------------------|
D|---7-----7-----7-5----------5-----3-|
A|-0---0-0---5-7----------------------|
E|-------------------5----3-5---3-5---|

STRUCTURE:
RIFF I   (4X) (00:02)
RIFF II  (2X) (00:33)
RIFF III (2X) (00:49)
RIFF II  (2X) (01:05)
RIFF IV  (2X) (01:21)
RIFF II  (2X) (01:37)
RIFF III (4X) (01:53)
RIFF IV  (2X) (02:26)
RIFF I   (4X) (02:42)
RIFF II  (1X) (03:13)
RIFF V   (1X) (03:21)
RIFF VI  (2X) (04:01)
RIFF VII (1X) (04:05)
RIFF VI  (2X) (04:13)
RIFF VII (1X) (04:17)
RIFF VI  (2X) (04:25)
RIFF VII (1X) (04:33)
RIFF VI  (2X) (04:37)
RIFF VII (1X) (04:41)
RIFF VI  (2X) (04:45)
RIFF VII (1X) (04:49)
RIFF VI  (2X) (05:03)
RIFF VII (1X) (05:07)
RIFF VI  (2X) (05:11)
RIFF VII (1X) (05:15)
RIFF VI  (2X) (05:19)
RIFF V   (1X) (05:23)
RIFF VI  (2X) (05:27)
RIFF V   (1X) (05:30)
RIFF VI  (2X) (05:35)
RIFF V   (1X) (05:39)
RIFF VI  (2X) (05:44)
RIFF II  (2X) (05:49)
RIFF I   (4X) (06:05)
		
Suggest correction
Give kudos to tab author, rate the tab!
1 2 3 4 5
comments
print report bad tab
guest
You may want to rate the tab now too:
select rating
Wanna post a correction for this tab? Suggest correction