Oops, an error
Loading. Please wait.

Luna Bass Tab

version 1
version 1

Whole song

Interactive

1,154 views 1 this week
no commentswrite comment
1 2 3 4 5
3 more votes to show rating
add to favorites
launch autoscroll
font size
0
reset
guitar tuner
Autoscroll
slow
fast
+/-
esc
set tempo
stop
Help us to improve Ultimate-Guitar.com Take our survey!
×
Author
ARTIST:MOONSPELL
MUSIC:LUNA (MEMORIAL,2006 SPV,TRACK 12,04:42)
BASS PLAYER: WALDEMAR SORYCHTA/AIRES PEREIRA
BASS TABLATURE:NARCISO (PT) (GOTHBASS31@VAMPIREFREAKS.COM)

RIFF 1
|-5-3-2-0-7h8h7-0-|
|-----------------|
|-----------------|
|-----------------|

RIFF 2
|-5-3-2-|
|-------|
|-------|
|-------|

RIFF 3
|-5-3-2-0-|
|---------|
|---------|
|---------|

RIFF 4
|-3-3-3-0-0-7-|
|-------------|
|-------------|
|-------------|

RIFF 5
|-3-3-3-0-0—7-7-7-7-|
|-------------------|
|-------------------|
|-------------------|

RIFF 6
|-0-0-0-0-0-0-0-0------0--------------------------------------------------------|
|--------------------7---6-6-6-6-6-6-6-6-6-6-5-5-5-5-5-5-5-5-4-4-4-4------------|
|-------------------------------------------------------------------------------|
|-------------------------------------------------------------------------------|

RIFF 7
|-3-3-3-3-3-3-3-3-0-0-0-0-7-7-7-7-7-|
|-----------------------------------|
|-----------------------------------|
|-----------------------------------|

RIFF 8
|-3-3-3-3-3-3-3-3-0-0-0-0-7-7-7-8-8-|
|-----------------------------------|
|-----------------------------------|
|-----------------------------------|

RIFF 9
|-3-3-3-3-3-3-3-3-0-0-0-0-7-7-7-8-8-8-8-8-8-8-8-3-3-3-3-5-5-5-5-|
|---------------------------------------------------------------|
|---------------------------------------------------------------|
|---------------------------------------------------------------|

RIFF 10
|-0-7h8h7-5-3-2-|
|---------------|
|---------------|
|---------------|

SYMBOL:
h:HAMMER ON

RIFF 1 3X (00:10)
RIFF 2 2X (00:19)
RIFF 3 1X (00:22)
RIFF 4 1X (00:36)
RIFF 5 1X (00:42)
RIFF 6 1X (00:48)
RIFF 7 1X (01:00)
RIFF 8 1X (01:06)
RIFF 9 1X (01:12)
RIFF 103X (01:24)
RIFF 2 1X (01:33)
RIFF 3 1X (01:34)
RIFF 7 1X (01:37)
RIFF 8 1X (01:43)
RIFF 9 1X (01:49)
RIFF 6 1X (02:02)
RIFF 7 1X (02:13)
RIFF 8 1X (02:19)
RIFF 9 1X (02:25)
RIFF 6 1X (02:38)
RIFF 2 1X (02:48)
RIFF 6 1X (02:50)
RIFF 2 1X (03:00)
RIFF 103X (03:01)
RIFF 2 2X (03:10)
RIFF 103X (03:13)
RIFF 2 2X (03:22)
RIFF 7 1X (03:28)
RIFF 8 1X (03:34)
RIFF 9 1X (03:40)
RIFF 7 1X (03:53)
RIFF 8 1X (03:58)
RIFF 9 1X (04:04)
RIFF 2 1X (04:16)
Suggest correction
Give kudos to tab author, rate the tab!
1 2 3 4 5
comments
print report bad tab
guest
You may want to rate the tab now too:
select rating
Wanna post a correction for this tab? Suggest correction