Oops, an error
Loading. Please wait.

Senti chords

version 2
version 2

Whole song

754 views 9 this week
no commentswrite comment
1 2 3 4 5
3 more votes to show rating
add to favorites
×
Save as Personal and add changes to this tab that will be seen only by you. Learn more ›
×
You can save this tab as Personal to edit and correct it or add notes. All changes will be seen only by you. Learn more »
launch autoscroll
font size
0
reset
transpose
0
reset
display chords
guitar tuner
edit
Autoscroll
slow
fast
+/-
esc
set tempo
stop
Author
Difficulty
Strumming
There is no strumming pattern for this song yet. and get +5 IQ
The chords and tabs are 90% accurate.


[Verse 1]

*strum 8x on each chord
e|-------------------|--------------------|---------------------|----------------------|
b|-------------------|--------------------|---------------------|----------------------|
g|-------------------|--------------------|---------------------|----------------------|
D|---------7---------|---------12---------|---------11----------|-----------12---------|
A|---------x---------|----------x---------|----------x----------|------------x---------|
E|---------5---------|---------10---------|---------9-----------|-----------10---------|
           A                   D                    C#m                     D
       Niyaya mo              ako                 mamasyal               sa zoo

A           D          C#m          D
Ang sabi mo kasi kailangan mo nang kasama
A             D       C#m       D
Sumama naman ako kasi crush kita, noon pa
A           D                C#m
Kung sabagay gusto ko naring magka
        D
Alam mo na


[Verse 2]

A         D          A         D
Pagkatapos kumain tayo sa labas
A          D                A         D
Kinwento mo ang iyong nakaraan, ang iyong nakaraan


[Refrain]

A             G         F#m            G  
Iniwanan ka pala nang iyong girlfriend
A            G           F#m           G
Kasi ayaw nya ang bago mong buhok


[Chorus]

A           D         A     D
Mahal ka ba niya talaga
A           D         A     D
Mahal ka ba niya talaga
A           D         A     D
Mahal ka ba niya talaga
A           D         A     D
Mahal ka ba niya talaga


[Verse 3]

A           D                A       D
Inaliw kita, tawa ka nga ng tawa eh

A        G           F#m
Sinabi mo, wag kita iwan

          G
Ayaw mo mag isa


[Refrain 2]

A      D
Ok lang sa akin
C#m              D
Abutin man nang umaga
A       D        C#m          D
Lahat ay gagawin para ka lang mapasaya



[Chorus]

A           D         A     D
Mahal ka ba niya talaga
A           D         A     D
Mahal ka ba niya talaga
A           D         A     D
Mahal ka ba niya talaga
A           D         A     D
Mahal ka ba niya talaga


[Outro]

*strum 6x on each chord
e|-------------------|-------------------|---------------------|----------------------|
b|-------------------|-------------------|---------------------|----------------------|
g|-------------------|-------------------|---------------------|----------------------|
D|---------7---------|---------5---------|---------3-----------|----------7-----------|
A|---------x---------|---------x---------|---------x-----------|----------x-----------|
E|---------5---------|---------3---------|---------2-----------|----------3-----------|
           A                   G                  F#m                     G
         Ako                Mahal kita                              Mahal na mahal

*use power chords after the tab

A   G   F#m   G
Mahal na mahal...

            
            
Suggest correction
Creating personal tab
Creating personal tab
You can edit any tab online and save it as your Personal.

You can edit, replace or remove any tab part or add personal notes – all changes will be seen only by you.

Personal tabs can be accessed anytime from any device, even offline.
Learn more »
Give kudos to tab author, rate the tab!
1 2 3 4 5
comments
print report bad tab
guest
You may want to rate the tab now too:
select rating
Wanna post a correction for this tab? Suggest correction