Oops, an error
Loading. Please wait.

Torete Tab

version 1
version 1
40,305 views 18 this week
no commentswrite comment
1 2 3 4 5
x 4
add to favorites
launch autoscroll
font size
0
reset
how to read this tab
guitar tuner
×
Best way to learn
"Torete"
Autoscroll
slow
fast
+/-
esc
set tempo
stop
Author
[Intro]

E|-2-2-3--3-3----------------------3--3-3------|
B|-3-3-3--3-3--------------3-3---------3-3-----|
G|-2-2-2--2-2--------------0-0-----------------|
D|------------------4------4-4-----------------|
A|----------------4---1-2--2-2----2------------|
E|--------------2----3-----------3-------------|

E|-2-2-3--3-3---------------------3------------|
B|-3-3-3--3-3--------------3-3----3------------|
G|-2-2-2--2-2--------------0-0-----------------|
D|------------------4------4-4-----------------|
A|----------------4---1-2--2-2----2------------|
E|--------------2----3------------3------------|
Suggest correction
comments
print report bad tab
guest
You may want to rate the tab now too:
select rating
Wanna post a correction for this tab? Suggest correction