Oops, an error
Loading. Please wait.

Torete Tab

version 2
version 2
30,450 views 36 this week
no commentswrite comment
1 2 3 4 5
1 last vote to show rating
add to favorites
launch autoscroll
font size
0
reset
how to read this tab
guitar tuner
×
Best way to learn
"Torete"
Autoscroll
slow
fast
+/-
esc
set tempo
stop
Author
[Intro]

e|-2-2---2h3---2--------2--2---2---------|--2--5--5----0h2p0------3-3--3---3--|
B|---------------3------2--2---2---------|--3--3----3--------3----3-3----3----|
G|----------------------3--3---3---------|--4--4------------------------------|
D|-0-----0-------------------------------|------------------------------------|
A|-------------------------------0-1-1/2-|------------------------------------|
E|--------------------2------------------|----------------------3-------------|
   * * ^ *     *  *

e|-2-2---2h3----2h3p2----------2--2---|------------2--2--2----------3----------------|
B|--------------------3--------2--2---|------------3--3----3---3----3----------------|
G|-----------------------------3--3---|------------4--4------4------0----------------|
D|-0-----0----------------------------|---------------0-------------0----------------|
A|------------------------------------|-0-1-1/2--------------------------------------|
E|-------------------------2----------|----------------------------------------------|
   * * ^ *      *     *                               "             "


************************************

| h  Hammer-on
| p  Pull-off
| /  Slide up
| *  hit strings hard to make ring
| ^  tap
| "  downward strum

************************************
Suggest correction
Give kudos to tab author, rate the tab!
1 2 3 4 5
comments
print report bad tab
guest
You may want to rate the tab now too:
select rating
Wanna post a correction for this tab? Suggest correction