Oops, an error
Loading. Please wait.

Torete Tab

version 2
version 2
7,532 views 3 this week
no commentswrite comment
1 2 3 4 5
please rate
add to favorites
launch autoscroll
font size
0
reset
how to read this tab
guitar tuner
Tab Pro tools
  • play this tab
  • loop segment
  • change instrument
  • show fretboard
  • metronome
×
Best way to learn
"Torete"
Autoscroll
slow
fast
+/-
esc
set tempo
stop
Song name  : Torete
Tabbed by  : Rein Torres 
E-mail add : unterdenlinden000@yahoo.com


Chords used 
Tuning standard

D   :  000232
F#m :  244322
Bm  :  224432
G   :  355433 (G: 320033 320003) other variations)


Intro part

E|------2-0-2------------2----------2----------3---|
B|------------3--------2-----------3-3--------3----|
G|--------------2----2------------4---4------4-----|    Repeat 2 times 
D|---0-------------4-------------4-----4----5------|    for the intro
A|-0-------------4---------0--1/2----------5-------|
E|----------------------------------------3--------|



Solo part
 
E-------------------------------------------------|
B--10-7---10H12—10-7--7---------------------------|
G-7------7-----------7---7-7-7H9------------------|
D-------------------------------------------------|
A-------------------------------------------------|
E-------------------------------------------------|

E|---------10—-9H10—9—5---------------------------|
B|---10-7---------------------7-------------------|
G|-7------------------------7---7-7-7H9-7---------|
D|------------------------------------------------|
A|------------------------------------------------|
E|------------------------------------------------|


Bass part

G|--------------------------------------------------------------|
D|----------------5-4-2---0-2-0----------------5-42-00-5-4-2----|
A|-00-555--5-4-00---------------00-555--5-4-00---------------5--|
E|--------------------------------------------------------------|

G|----------------------------------------------------------------|
D|----7-----5-4-2---------7-----7-----4-----5-4-2-0----7-0------7-|
A|4/5---5-7------5-2-5-4h5—5-44—--0-2---2-2--------5-------4-4----|
E|----------------------------------------------------------------|




G|---------------------------------------------------------------|
D|-----4-----55-4-2----------4-------4-----5-4-2-0---------------|
A|-0-2---2-2-------5—555-4-4---4—0-2---2-2-----------------------|
E|---------------------------------------------------------------|

G|---------------------------------------------------------------|
D|-----7-7-7-5-4-44-5-4-----------4-------5-4-2-0----------------|
A|-4-5------------------5-5-5-0-2---2-2--------------------------|
E|---------------------------------------------------------------|

G|---------------------------------------------------------------|
D|---7-4---7—4----4-------------7—4------7/9—-7-4----4-----------|
A|-5-----5------5----5-5—7-5-5------5--------------5----55-7—5---|
E|---------------------------------------------------------------|

/: Slide up
\: Slide down
H: Hammer
^: Tremolo

The bass part you can play it on a simple acoustic guitar 

The first part of the bass tabs I'm not quite sure if its accurate 
I've listened to it that's what I got just try it this my second time tabbing some songs
comments
We did not receive enough feedback on this tab! Please rate:
print report bad tab
1 2 3 4 5
I want to post or [tab]
guest
You may want to rate the tab now too:
select rating
Please do not post tabs as comments. Select "correction" instead!