Oops, an error
Loading. Please wait.

Torete tab

version 6
version 6
565 views 12 this week
no commentswrite comment
1 2 3 4 5
3 more votes to show rating
add to favorites
×
Save as Personal and add changes to this tab that will be seen only by you. Learn more ›
×
You can save this tab as Personal to edit and correct it or add notes. All changes will be seen only by you. Learn more »
launch autoscroll
font size
0
reset
how to read this tab
guitar tuner
edit
Autoscroll
slow
fast
+/-
esc
set tempo
stop
Torete by Moonstar 88

Tabs written and arranged by Edwin-E (in YouTube)
Blog: http://guitarplucking.blogspot.com
Facebook Page: http://facebook.com/EdwinGuitar

Video Tutorial:  http://www.youtube.com/watch?v=dr2T2QPLRCA


Note:  Capo on 2nd Fret

Intro:
C-Em-Am-F; (2x)


E|--0--------0h1--0----------------0-----------------3-----------------1--]
B|-----1-------------3p1--0--------0-----------------1--1-----------1--1--]
G|--------0------------------------0--------------2--2-----2-----2-----2--]
D|------------------------------0--------------2-----2--------3--------3--]
A|--3------------------------2--------------0-----------------------------]
E|------------------------0-----------3--4--------------------------------]


E|--0--------0h1--0----------------0-----------------3-----------------1--]
B|-----1-------------3p1--0--------0-----------------1--1-----------1--1--]
G|--------0------------------------0--------------2--2-----2-----2-----2--]
D|------------------------------0--------------2-----2--------3--------3--]
A|--3------------------------2--------------0-----------------------------]
E|------------------------0-----------3--4--------------------------------]



Verse I

E|-----------------0-----------------0--]
B|--------1--1--1-----1--------------0--]
G|--0--0-----------------0--------0--0--]
D|-----------------------------0--------]
A|--------3-----------------2-----------]
E|--------------------------------------]
      C            Em7
Sandali na lang


E|--------1--0--------------]
B|--------------3--1--3--3--]
G|--0--0--------------------]
D|-----------------------3--]
A|--------0-----------------]
E|--------------------------]
   Am              F
Maaari bang pagbigyan


E|-----------------0-----------------0--]
B|--------1--1--1-----1--------------0--]
G|--0--0-----------------0--------0--0--]
D|-----------------------------0--------]
A|--------3-----------------2-----------]
E|--------------------------------------]
   C          Em7
Aalis na nga


E|--------1--0-----------1-----]
B|--------------1--1--3-----1--]
G|--0--0-----------------------]
D|--------------------3--------]
A|--------0--------------------]
E|-----------------------------]
   Am         F
Maaari bang hawakan


E|-----------------------0--]
B|--1--1--------1--3--------]
G|--------0--0--------0-----]
D|--------------------------]
A|-----3-----------2--------]
E|--------------------------]
      C          Em7
Ang iyong mga kamay


E|--1--0-----------1--0--------]
B|--------1--1--1--------3--1--]
G|-----------------------------]
D|-----------------3-----------]
A|--0--------------------------]
E|-----------------------------]
Am          F
Sana ay Maabot ng langit


E|-----------------------0--]
B|--1--1--------1--3--------]
G|--------0--0--------0-----]
D|--------------------------]
A|-----3-----------2--------]
E|--------------------------]
C              Em7
Ang iyong mga ngiti


E|--1--0--------------]
B|--------1--1--3--1--]
G|--------------------]
D|--------------3-----]
A|--0-----------------]
E|--------------------]
Am         F
Sana ay maisilip


Refrain:



E|-----3-----------3--]
B|--1-----1--0--0-----]
G|--------------------]
D|--------------------]
A|--3--3-----2--------]
E|--------------------]
C            Em7
Wag kang mag-alala

E|--------0--------0--1--0--------]
B|--0-----------------------3--1--]
G|-----2-----2--2-----------------]
D|-----------------3--------------]
A|-----0--------------------------]
E|--------------------------------]
Am       F
Di ko ipipilit sa'yo


E|-----3-----------3--]
B|--1-----1--0--0-----]
G|--------------------]
D|--------------------]
A|--3--3-----2--------]
E|--------------------]
C          Em7
Kahit na lilipad


E|--------0--------0--1--0--------]
B|--0-----------------------3--1--]
G|-----2-----2--2-----------------]
D|-----------------3--------------]
A|-----0--------------------------]
E|--------------------------------]
Am              F
Ang isip ko'y torete sa'yo



Verse II

E|--------0-----------------0-----]
B|--------1--1--1--1--0--0-----0--]
G|--------0-----------------------]
D|-----2--------------------------]
A|--3-----------------2-----------]
E|--------------------------------]
C               Em7
 Ilang gabi pa nga lang 


E|--------------1--0--------]
B|--0-----1-----------3--1--]
G|-----2-----2--------------]
D|--------------3-----------]
A|-----0--------------------]
E|--------------------------]
     Am        F
Nang tayo'y pinagtagpo


E|--------0-----------------0-----]
B|--------1--1--1--1--0--0-----0--]
G|--------0-----------------------]
D|-----2--------------------------]
A|--3-----------------2-----------]
E|--------------------------------]
C                Em7
 Na parang may tumulak,


E|-----------------------0--1--0--------]
B|--0--0--1--1--1--1--1-----------3--1--]
G|--------------------------------------]
D|-----------------------3--------------]
A|-----0--------------------------------]
E|--------------------------------------]
   Am                F         
Nanlalamig, nanginginig na ako


E|--------0--3--3--1--0--1--0-----]
B|--------1--------------------1--]
G|--------0-----------------------]
D|-----2--------------------------]
A|--3-----------------------2-----]
E|--------------------------------]
C              Em7
 Akala ko nung una


E|--------0-----1--0--------]
B|--------------------3--1--]
G|--0--2-----2--------------]
D|--------------3-----------]
A|-----0--------------------]
E|--------------------------]
    Am        F  
May bukas ang ganito

 
E|--------0--3--3--1--0--1--0-----]
B|--------1--------------------1--]
G|--------0-----------------------]
D|-----2--------------------------]
A|--3-----------------------2-----]
E|--------------------------------]
C              Em7
 Mabuti pang umiwas


E|--------------0-----------1--0--------]
B|-----------------------1--------3--1--]
G|--0--0--0--2-----2--2-----------------]
D|--------------------------3-----------]
A|-----------0--------------------------]
E|--------------------------------------]
        Am              F-hold
Pero salamat na rin at nagtagpo


Chorus:

E|-----3--0-----3--0-----0--------------]
B|-----1--1-----0--0-----1--1--1--3--1--]
G|--0--------0--------0-----------2--2--]
D|--------------------------------3--3--]
A|-----3--3-----2--2-----0--0-----------]
E|--------------------------------------]
   C       Em7     Am   F
Torete, Torete, Torete ako



E|-----3--0-----3--0-----0--------------]
B|-----1--1-----0--0-----1--1--1--3--1--]
G|--0--------0--------0-----------2--2--]
D|--------------------------------3--3--]
A|-----3--3-----2--2-----0--0-----------]
E|--------------------------------------]
  C        Em7    Am      F
Torete, Torete, Torete sa'yo


Repeat Refrain:

Repeat Chorus

Adlib:
C-Em-Am-F-; (2x)

Repeat Chorus

            
            
Suggest correction
Creating personal tab
Creating personal tab
You can edit any tab online and save it as your Personal.

You can edit, replace or remove any tab part or add personal notes – all changes will be seen only by you.

Personal tabs can be accessed anytime from any device, even offline.
Learn more »
Give kudos to tab author, rate the tab!
1 2 3 4 5
comments
print report bad tab
guest
You may want to rate the tab now too:
select rating
Wanna post a correction for this tab? Suggest correction