Oops, an error
Loading. Please wait.

Bukowski bass

502 views 18 this week
no commentswrite comment
1 2 3 4 5
x 4
add to favorites
×
Save as Personal and add changes to this tab that will be seen only by you. Learn more ›
×
You can save this tab as Personal to edit and correct it or add notes. All changes will be seen only by you. Learn more »
launch autoscroll
font size
0
reset
guitar tuner
edit
Autoscroll
slow
fast
+/-
esc
set tempo
stop
Author
Difficulty
About this tab version
I believe this tab is 100% correct as i play it with my own band and it sounds right all the way through. If you do find something is wrong tho comment and ill correct. Was this info helpful? Yes No
[Intro x2]

G|---------------------------------------------------------------------------|
D|---------------------------------------------------------------------------|
A|7-7-7-7-7-7-7-7-7-7-7-7-7-7-7-7--------------------------------------------|
E|-------------------------------5-5-5-5-5-5-5-5-5-5-5-5-5-5-5-5-------------|

G|---------------------------------------------------------------------------|
D|---------------------------------------------------------------------------|
A|4-4-4-4-4-4-4-4-4-4-4-4-4-4-4-4-2-2-2-2-2-2-2-2-2-2-2-2-2-2-2-2------------|
E|---------------------------------------------------------------------------|


[Verse x3]

G|---------------------------------------------------------------------------|
D|---------------------------------------------------------------------------|
A|7-7-7-7-7-7-7-7-7-7-7-7-7-7-7-7-0-0-0-0-0-0-0-0-0-0-0-0-0-0-0-0------------|
E|---------------------------------------------------------------------------|

G|---------------------------------------------------------------------------|
D|---------------------------------------------------------------------------|
A|4-4-4-4-4-4-4-4-4-4-4-4-4-4-4-4-2-2-2-2-2-2-2-2-2-2-2-2-2-2-2-2------------|
E|---------------------------------------------------------------------------|


[Chorus x2]

G|---------------------------------------------------------------------------|
D|---------------------------------------------------------------------------|
A|----------------2-2-2-2-2-2-2-2-4-4-4-4-4-4-4-4-2-2-2-2-2-2-2-2------------|
E|5-5-5-5-5-5-5-5------------------------------------------------------------|


[Verse x2]

G|---------------------------------------------------------------------------|
D|---------------------------------------------------------------------------|
A|7-7-7-7-7-7-7-7-7-7-7-7-7-7-7-7-0-0-0-0-0-0-0-0-0-0-0-0-0-0-0-0------------|
E|---------------------------------------------------------------------------|

G|---------------------------------------------------------------------------|
D|---------------------------------------------------------------------------|
A|4-4-4-4-4-4-4-4-4-4-4-4-4-4-4-4-2-2-2-2-2-2-2-2-2-2-2-2-2-2-2-2------------|
E|---------------------------------------------------------------------------|


[Chorus x2]

G|---------------------------------------------------------------------------|
D|---------------------------------------------------------------------------|
A|----------------2-2-2-2-2-2-2-2-4-4-4-4-4-4-4-4-2-2-2-2-2-2-2-2------------|
E|5-5-5-5-5-5-5-5------------------------------------------------------------|


[Bridge x2: listen out for the timing]

G|---------------------------------------------------------------------------|
D|---------------------------------------------------------------------------|
A|7-7-\-2-2-2-4-4-4-4-4-4--4-4-2-2-2-------------7-7-\-2-2-2-4-4-4-4-4-4-----|
E|-----------------------------------5-5-5-5-5-5-----------------------------|

G|---------------------------------------------------------------------------|
D|---------------------------------------------------------------------------|
A|2-2-2-2-2-2-2-2-2-2-2-2-2-2-2-2---(/7 on last time round)------------------|
E|---------------------------------------------------------------------------|

[Outro x2]

G|---------------------------------------------------------------------------|
D|---------------------------------------------------------------------------|
A|7-7-7-7-7-7-7-7-7-7-7-7-7-7-7-7--------------------------------------------|
E|-------------------------------5-5-5-5-5-5-5-5-5-5-5-5-5-5-5-5-------------|

G|---------------------------------------------------------------------------|
D|---------------------------------------------------------------------------|
A|4-4-4-4-4-4-4-4-4-4-4-4-4-4-4-4-2-2-2-2-2-2-2-2-2-2-2-2-2-2-2-2--(/7)------|
E|---------------------------------------------------------------------------|
************************************

| (n) Ghost note
| /   Slide up
| \   Slide down

************************************
Suggest correction
Creating personal tab
Creating personal tab
You can edit any tab online and save it as your Personal.

You can edit, replace or remove any tab part or add personal notes – all changes will be seen only by you.

Personal tabs can be accessed anytime from any device, even offline.
Learn more »
comments
print report bad tab
guest
You may want to rate the tab now too:
select rating
Wanna post a correction for this tab? Suggest correction