Oops, an error
Loading. Please wait.

Freckle tab

586 views 9 this week
no commentswrite comment
1 2 3 4 5
2 more votes to show rating
add to favorites
×
Save as Personal and add changes to this tab that will be seen only by you. Learn more ›
×
You can save this tab as Personal to edit and correct it or add notes. All changes will be seen only by you. Learn more »
launch autoscroll
font size
0
reset
how to read this tab
guitar tuner
edit
Autoscroll
slow
fast
+/-
esc
set tempo
stop
Author
Difficulty
Artist: Moose Blood
Song: Freckle
Album: Blush
Tabbed By: Matthew Florio
Email: Shempashland@yahoo.com

Tuning: Standard

[Intro]

Guitar 1
*plays underneath the rhythm and bass.
e|---7-7-7-7-7-7-9-9-9-7-7-7-7-7-7-6-6-6-|---7-7-7-7-7-7-9-9-9-7-7-7-7-7-7-6-6-|--7~---|
B|---7-7-7-7-7-7-7-7-7-7-7-7-7-7-7-7-7-7-|---7-7-7-7-7-7-7-7-7-7-7-7-7-7-7-7-7-|--7~---|
G|---------------------------------------|-------------------------------------|-------|
D|---------------------------------------|-------------------------------------|-------|
A|---------------------------------------|-------------------------------------|-------|
E|---------------------------------------|-------------------------------------|-------|

Guitar 2
e|--------------------------|--------------------------|-------------------------|-------------------------|
B|--------------------------|--------------------------|-------------------------|-------------------------|
G|-4-4-4--4-4--4--4-4-4-4-4-|-4-4-4--4-4--4-4--4-4-4-4-|-4-4-4--4-4-4-4--4-4-4-4-|-4-4-4--4-4-4-4--4-4-4-4-|
D|-4-4-4--4-4--4--4-4-4-4-4-|-4-4-4--4-4--4-4--4-4-4-4-|-4-4-4--4-4-4-4--4-4-4-4-|-4-4-4--4-4-4-4--4-4-4-4-|
A|-x-x-x--2-2--x--x-x-x-x-x-|-x-x-x--2-2--x-x--x-x-x-x-|-x-x-x--2-2-x-x--x-x-x-x-|-x-x-x--2-2-x-x--x-x-x-x-|
E|-4-4-4--0-0--2--2-2-2-2-2-|-4-4-4--0-0--2-2--2-2-2-2-|-4-4-4--0-0-2-2--2-2-2-2-|-4-4-4--0-0-2-2--2-2-2-2-|

Guitar 3
e|---------------------------------------------------|--------------------------|--------|
B|---------------------------------------------------|--------------------------|--------|
G|---11-11-11-11-11-11-11-11-11-11-11-11-11-11-11-11-|--11-11-11-11-11-11-11-11-|--11~---|
D|----9--9--9--9--9--9--9--9--9--9--9--9--9--9--9--9-|---9--9--9--9--9--9--9--9-|---9~---|
A|---11-11-11-11-11-11-11-11-11-11-11-11-11-11-11-11-|--11-11-11-11-11-11-11-11-|--11~---|
E|---------------------------------------------------|--------------------------|--------|

[Verse]

Guitar 1

Guitar 2
*no Guitar 1 in the first half of the Verse.
e|-----------------------------------------------|---------------------------------------------|
B|-----------------------------------------------|---------------------------------------------|
G|-----------------------------------------------|---------------------------------------------|
D|---4-4-4-4-4-4-4-4--4-4-4-4-4-4-4-4-4--4-4-4-4-|-4-4-4-4-4-4-4-4--4-4-4-4-4-4-4-4-4--4-4-4---|
A|---2-2-2-2-2-2-2-2--2-2-2-2-2-2-2-2-2--2-2-2-2-|-2-2-2-2-2-2-2-2--2-2-2-2-2-2-2-2-2--2-2-2---|
E|---4-4-4-4-4-4-4-4--2-2-2-0-0-0-0-0-0--2-2-2-2-|-4-4-4-4-4-4-4-4--2-2-2-0-0-0-0-0-0--2-2-2---|
"Do you really wanna go there?"

Guitar 1
e|------------------------|----------------------|----------------------|------------------------|
B|---2---2---2------------|-2---2---2------------|-2---2---2------------|-2---2---2--------------|
G|-----4---4---4---3--3h4-|---4---4---4---3--3h4-|---4---4---4---3--3h4-|---4---4---4---3--3h4---|
D|-------4---4---4---4----|-----4---4---4---4----|-----4---4---4---4----|-----4---4---4---4------|
A|------------------------|----------------------|----------------------|------------------------|
E|------------------------|----------------------|----------------------|------------------------|
"Don't say it now love..."

Guitar 2
e|-----------------------------------------------|---------------------------------------------|
B|-----------------------------------------------|---------------------------------------------|
G|-----------------------------------------------|---------------------------------------------|
D|---4-4-4-4-4-4-4-4--4-4-4-4-4-4-4-4-4--4-4-4-4-|-4-4-4-4-4-4-4-4--4-4-4-4-4-4-4-4-4--4-4-4---|
A|---2-2-2-2-2-2-2-2--2-2-2-2-2-2-2-2-2--2-2-2-2-|-2-2-2-2-2-2-2-2--2-2-2-2-2-2-2-2-2--2-2-2---|
E|---4-4-4-4-4-4-4-4--2-2-2-0-0-0-0-0-0--2-2-2-2-|-4-4-4-4-4-4-4-4--2-2-2-0-0-0-0-0-0--2-2-2---|

[Pre Chorus]

Guitar 1
e|---11----11----11----11-----11-11-11-11-|---11----11----11----11-----14-14-14-14---|
B|-----12----12----12----12---14-14-14-14-|-----12----12----12----12---12-12-12-12---|
G|-------11----11----11----11-11-11-11-11-|-------11----11----11----11-11-11-11-11---|
D|----------------------------------------|------------------------------------------|
A|----------------------------------------|------------------------------------------|
E|----------------------------------------|------------------------------------------|
Do this part 3 times.                   Then the 4th time play this.

Guitar 2
e|-------------------------|-------------------------|-------------------------|-------------------------|
B|-------------------------|-------------------------|-------------------------|-------------------------|
G|-4-4-4-4-4-4-4-4-4-4-4-4-|-4-4-4-4-4-4-4-4-4-4-4-4-|-4-4-4-4-4-4-4-4-4-4-4-4-|-4-4-4-4-4-4-4-4-4-4-4-4-|
D|-4-4-4-2-4-4-4-2-4-4-4-4-|-4-4-4-2-4-4-4-2-4-4-4-4-|-4-4-4-2-4-4-4-2-4-4-4-4-|-4-4-4-2-4-4-4-2-4-4-4-4-|
A|-2-2-2-2-4-4-4-2-2-2-2-2-|-2-2-2-2-4-4-4-2-2-2-2-2-|-2-2-2-2-4-4-4-2-2-2-2-2-|-2-2-2-2-4-4-4-2-2-2-2-2-|
E|-------0-------0---------|-------0-------0---------|-------0-------0---------|-------0-------0---------|

[Chorus]

Guitar 1
*play this 2 twice
e|------------------------------|----------------------------|---------------------------|
B|------------------------------|----------------------------|---------------------------|
G|---11h13-13-13-13-13-13-13-13-|-11-11-11-11-11-11-11-11/16-|-16-16-16-13-13-13p11-11\9-|
D|------------------------------|----------------------------|---------------------------|
A|------------------------------|----------------------------|---------------------------|
E|------------------------------|----------------------------|---------------------------|

Guitar 2
e|-----------------------------------------------------------------|
B|-----------------------------------------------------------------|
G|-4-4-4-4-4-4-4-4-4-4-4-4-4-4-4-4-4-4-4-4-4-4-4-4-4-4-4-4-4-4-4-4-|
D|-4-4-4-4-4-4-4-4-4-4-4-4-4-4-4-4-4-4-4-4-4-4-4-4-2-2-2-2-4-4-4-4-|
A|-2-2-2-2-2-2-2-2-x-x-x-x-x-x-x-x-x-x-x-x-x-x-x-x-2-2-2-2-x-x-x-x-|
E|-----------------2-2-2-2-2-2-2-2-4-4-4-4-4-4-4-4-0-0-0-0-2-2-2-2-|

e|-----------------------------------------------------------------|
B|-----------------------------------------------------------------|
G|-4-4-4-4-4-4-4-4-4-4-4-4-4-4-4-4-4-4-4-4-4-4-4-4-4-4-4-4-4-4-4-4-|
D|-4-4-4-4-4-4-4-4-4-4-4-4-4-4-4-4-4-4-4-4-4-4-4-4-2-2-2-2-4-4-4-4-|
A|-2-2-2-2-2-2-2-2-x-x-x-x-x-x-x-x-x-x-x-x-x-x-x-x-2-2-2-2-x-x-x-x-|
E|-----------------2-2-2-2-2-2-2-2-4-4-4-4-4-4-4-4-0-0-0-0-2-2-2-2-|



[Intro]

Guitar 1
*plays underneath the rhythm and bass.
e|---7-7-7-7-7-7-9-9-9-7-7-7-7-7-7-6-6-6-|---7-7-7-7-7-7-9-9-9-7-7-7-7-7-7-6-6-|--7~---|
B|---7-7-7-7-7-7-7-7-7-7-7-7-7-7-7-7-7-7-|---7-7-7-7-7-7-7-7-7-7-7-7-7-7-7-7-7-|--7~---|
G|---------------------------------------|-------------------------------------|-------|
D|---------------------------------------|-------------------------------------|-------|
A|---------------------------------------|-------------------------------------|-------|
E|---------------------------------------|-------------------------------------|-------|

Guitar 2
e|--------------------------|--------------------------|-------------------------|-------------------------|
B|--------------------------|--------------------------|-------------------------|-------------------------|
G|-4-4-4--4-4--4--4-4-4-4-4-|-4-4-4--4-4--4-4--4-4-4-4-|-4-4-4--4-4-4-4--4-4-4-4-|-4-4-4--4-4-4-4--4-4-4-4-|
D|-4-4-4--4-4--4--4-4-4-4-4-|-4-4-4--4-4--4-4--4-4-4-4-|-4-4-4--4-4-4-4--4-4-4-4-|-4-4-4--4-4-4-4--4-4-4-4-|
A|-x-x-x--2-2--x--x-x-x-x-x-|-x-x-x--2-2--x-x--x-x-x-x-|-x-x-x--2-2-x-x--x-x-x-x-|-x-x-x--2-2-x-x--x-x-x-x-|
E|-4-4-4--0-0--2--2-2-2-2-2-|-4-4-4--0-0--2-2--2-2-2-2-|-4-4-4--0-0-2-2--2-2-2-2-|-4-4-4--0-0-2-2--2-2-2-2-|

Guitar 3
e|---------------------------------------------------|--------------------------|--------|
B|---------------------------------------------------|--------------------------|--------|
G|---11-11-11-11-11-11-11-11-11-11-11-11-11-11-11-11-|--11-11-11-11-11-11-11-11-|--11~---|
D|----9--9--9--9--9--9--9--9--9--9--9--9--9--9--9--9-|---9--9--9--9--9--9--9--9-|---9~---|
A|---11-11-11-11-11-11-11-11-11-11-11-11-11-11-11-11-|--11-11-11-11-11-11-11-11-|--11~---|
E|---------------------------------------------------|--------------------------|--------|

[Verse]

Guitar 1
e|---9~--------9~---------|---9~--------9~----------|---9~-------9~----------|
B|-----12~-------12~------|------12~-------12~------|------12~------12~------|
G|--------11~-------11~---|---------11~-------11~---|---------11~------11~---|
D|------------------------|-------------------------|------------------------|
A|------------------------|-------------------------|------------------------|
E|------------------------|-------------------------|------------------------|
"I wish we didn't go there..."

Guitar 2
e|-----------------------------------------------|---------------------------------------------|
B|-----------------------------------------------|---------------------------------------------|
G|-----------------------------------------------|---------------------------------------------|
D|---4-4-4-4-4-4-4-4--4-4-4-4-4-4-4-4-4--4-4-4-4-|-4-4-4-4-4-4-4-4--4-4-4-4-4-4-4-4-4--4-4-4---|
A|---2-2-2-2-2-2-2-2--2-2-2-2-2-2-2-2-2--2-2-2-2-|-2-2-2-2-2-2-2-2--2-2-2-2-2-2-2-2-2--2-2-2---|
E|---4-4-4-4-4-4-4-4--2-2-2-0-0-0-0-0-0--2-2-2-2-|-4-4-4-4-4-4-4-4--2-2-2-0-0-0-0-0-0--2-2-2---|


Guitar 1
e|------------------------|----------------------|----------------------|------------------------|
B|---2---2---2------------|-2---2---2------------|-2---2---2------------|-2---2---2--------------|
G|-----4---4---4---3--3h4-|---4---4---4---3--3h4-|---4---4---4---3--3h4-|---4---4---4---3--3h4---|
D|-------4---4---4---4----|-----4---4---4---4----|-----4---4---4---4----|-----4---4---4---4------|
A|------------------------|----------------------|----------------------|------------------------|
E|------------------------|----------------------|----------------------|------------------------|
"Don't say it now love..."

Guitar 2
e|-----------------------------------------------|---------------------------------------------|
B|-----------------------------------------------|---------------------------------------------|
G|-----------------------------------------------|---------------------------------------------|
D|---4-4-4-4-4-4-4-4--4-4-4-4-4-4-4-4-4--4-4-4-4-|-4-4-4-4-4-4-4-4--4-4-4-4-4-4-4-4-4--4-4-4---|
A|---2-2-2-2-2-2-2-2--2-2-2-2-2-2-2-2-2--2-2-2-2-|-2-2-2-2-2-2-2-2--2-2-2-2-2-2-2-2-2--2-2-2---|
E|---4-4-4-4-4-4-4-4--2-2-2-0-0-0-0-0-0--2-2-2-2-|-4-4-4-4-4-4-4-4--2-2-2-0-0-0-0-0-0--2-2-2---|

[Pre Chorus]

Guitar 1
e|---11----11----11----11-----11111111-|---11----11----11----11-----14141414---|
B|-----12----12----12----12---14141414-|-----12----12----12----12---12121212---|
G|-------11----11----11----11-11111111-|-------11----11----11----11-11111111---|
D|-------------------------------------|---------------------------------------|
A|-------------------------------------|---------------------------------------|
E|-------------------------------------|---------------------------------------|
Do this part 3 times.                   Then the 4th time play this.

Guitar 2
e|-------------------------|-------------------------|-------------------------|-------------------------|
B|-------------------------|-------------------------|-------------------------|-------------------------|
G|-4-4-4-4-4-4-4-4-4-4-4-4-|-4-4-4-4-4-4-4-4-4-4-4-4-|-4-4-4-4-4-4-4-4-4-4-4-4-|-4-4-4-4-4-4-4-4-4-4-4-4-|
D|-4-4-4-2-4-4-4-2-4-4-4-4-|-4-4-4-2-4-4-4-2-4-4-4-4-|-4-4-4-2-4-4-4-2-4-4-4-4-|-4-4-4-2-4-4-4-2-4-4-4-4-|
A|-2-2-2-2-4-4-4-2-2-2-2-2-|-2-2-2-2-4-4-4-2-2-2-2-2-|-2-2-2-2-4-4-4-2-2-2-2-2-|-2-2-2-2-4-4-4-2-2-2-2-2-|
E|-------0-------0---------|-------0-------0---------|-------0-------0---------|-------0-------0---------|

[Chorus]

Guitar 1
*play this 2 twice
e|------------------------------|----------------------------|---------------------------|
B|------------------------------|----------------------------|---------------------------|
G|---11h13-13-13-13-13-13-13-13-|-11-11-11-11-11-11-11-11/16-|-16-16-16-13-13-13p11-11\9-|
D|------------------------------|----------------------------|---------------------------|
A|------------------------------|----------------------------|---------------------------|
E|------------------------------|----------------------------|---------------------------|

Guitar 2
e|-----------------------------------------------------------------|
B|-----------------------------------------------------------------|
G|-4-4-4-4-4-4-4-4-4-4-4-4-4-4-4-4-4-4-4-4-4-4-4-4-4-4-4-4-4-4-4-4-|
D|-4-4-4-4-4-4-4-4-4-4-4-4-4-4-4-4-4-4-4-4-4-4-4-4-2-2-2-2-4-4-4-4-|
A|-2-2-2-2-2-2-2-2-x-x-x-x-x-x-x-x-x-x-x-x-x-x-x-x-2-2-2-2-x-x-x-x-|
E|-----------------2-2-2-2-2-2-2-2-4-4-4-4-4-4-4-4-0-0-0-0-2-2-2-2-|

e|-----------------------------------------------------------------|
B|-----------------------------------------------------------------|
G|-4-4-4-4-4-4-4-4-4-4-4-4-4-4-4-4-4-4-4-4-4-4-4-4-4-4-4-4-4-4-4-4-|
D|-4-4-4-4-4-4-4-4-4-4-4-4-4-4-4-4-4-4-4-4-4-4-4-4-2-2-2-2-4-4-4-4-|
A|-2-2-2-2-2-2-2-2-x-x-x-x-x-x-x-x-x-x-x-x-x-x-x-x-2-2-2-2-x-x-x-x-|
E|-----------------2-2-2-2-2-2-2-2-4-4-4-4-4-4-4-4-0-0-0-0-2-2-2-2-|

[Outro]

Guitar 1
*play this until the end.
e|-------------------------|-------------------------------------------|
B|---9-7---7----9-7---7----|-9-7---7----7------------------------------|
G|------6h8-8------6h8-8---|----6h8-8~---8-----------------------------|
D|----------------------9--|-----------9-------------------------------|
A|-------------------------|-------------------------------------------|
E|-------------------------|-------------------------------------------|

Guitar 2
e|-------------------------------|-------------------------------------|
B|-------------------------------|-------------------------------------|
G|-------------------------------|-------------------------------------|
D|-------4-------------4---------|-----4-----------4-------------------|
A|-----2---2-----2---2---2-----2-|---2---2---2---2---2---2-------------|
E|---0-------0-2---0-------0-2---|-4-------2---4-------2---------------|

at [03:25] Guitar 2 plays this until the end.

e|-----------------------------------|---------------------------------|
B|-----------------------------------|---------------------------------|
G|---4-4-4-4-4-4-4-4-4-4-4-4-4-4-4-4-|-4-4-4-4-4-4-4-4-4-4-4-4-4-4-4-4-|
D|---4-4-4-4-4-4-4-4-4-4-4-4-4-4-4-4-|-4-4-4-4-4-4-4-4-4-4-4-4-4-4-4-4-|
A|---2-2-2-2-2-2-2-x-2-2-2-2-2-2-2-x-|-x-x-x-x-x-x-x-x-x-x-x-x-x-x-x-x-|
E|---0-0-0-0-0-0-0-2-0-0-0-0-0-0-0-2-|-4-4-4-4-4-4-4-4-4-4-4-4-4-2-2-2-| 

************************************

| ~  Vibrato
| x  Dead note
| h  Hammer-on
| p  Pull-off
| /  Slide up
| \  Slide down

************************************

            
            
Suggest correction
Creating personal tab
Creating personal tab
You can edit any tab online and save it as your Personal.

You can edit, replace or remove any tab part or add personal notes – all changes will be seen only by you.

Personal tabs can be accessed anytime from any device, even offline.
Learn more »
Give kudos to tab author, rate the tab!
1 2 3 4 5
comments
print report bad tab
guest
You may want to rate the tab now too:
select rating
Wanna post a correction for this tab? Suggest correction