Oops, an error
Loading. Please wait.

Gum tab

version 1
version 1

Whole song

  • This tab provides the correct way to play "Gum" by... Show more
20,274 views 189 this week
3 commentsread comments
1 2 3 4 5
x 23
add to favorites
×
Save as Personal and add changes to this tab that will be seen only by you. Learn more ›
×
You can save this tab as Personal to edit and correct it or add notes. All changes will be seen only by you. Learn more »
launch autoscroll
font size
0
reset
how to read this tab
guitar tuner
edit
Autoscroll
slow
fast
+/-
esc
set tempo
stop
Author
Difficulty
-------------------------------------------------------------------------------
                             GUM - Moose Blood
-------------------------------------------------------------------------------
Tabbed by: Blake McConnell
E-mail: blakekelseymcconnell@gmail.com

Check out my cover of the song: https://www.youtube.com/watch?v=TqPxriIu4w8

Tuning: Standard


[Verse 1]

e|---------------------------------------------------------------------------------|
B|--0-0-0-0-0-0-0-0-0-0-0-0-0-0-0-0-0-0-0-0-0-0-0-0--------------------------------|
G|--9-9-9-9-9-9-9-9-9-9-9-9-9-9-9-9-9-9-9-9-9-9-9-9--------------------------------|
D|--9-9-9-9-9-9-9-9-9-9-9-9-9-9-9-9-9-9-9-9-9-9-9-9----9 times---------------------|
A|--7-7-7-7-7-7-7-7----------------------------------------------------------------|
E|------------------9-9-9-9-9-9-9-9-7-7-7-7-7-7-7-7--------------------------------|

e|---------------------------------------------------------------------------------|
B|--0-0-0-0-0-0-0-0-0-0-0-0-0-0-0-0-0-0-0-0----------------------------------------|
G|--6-6-6-6-6-6-6-6-6-6-6-6-6-6-6-6-6-6-6-6----------------------------------------|
D|--9-9-9-9-9-9-9-9-9-9-9-9-9-9-9-9-9-9-9-9----------------------------------------|
A|--0-0-0-0-0-0-0-0-0-0-0-0-0-0-0-0-0-0-0-0----------------------------------------|
E|---------------------------------------------------------------------------------|


[Verse 2]

e|---0-0-0-0-0-0-0-0---------------------------------------------------------------|
B|--7-7-9-9-4-4-4-4-------------0-0-0-0-0-0-0-0-0-0-0-0-0-0-0-0-0-0-0-0------------|
G|--------------------5 times---6-6-6-6-6-6-6-6-6-6-6-6-6-6-6-6-6-6-6-6------------|
D|------------------------------9-9-9-9-9-9-9-9-9-9-9-9-9-9-9-9-9-9-9-9------------|
A|------------------------------0-0-0-0-0-0-0-0-0-0-0-0-0-0-0-0-0-0-0-0------------|
E|---------------------------------------------------------------------------------|

e|-------0--0-0-----------0--0-0--------0-0-0--------------------------------------|
B|-------0--0-0-----------3--3-3--------0-0-0--------------------------------------|
G|-------2--2-2-----------2--2-2--------2-2-2-1-1----------------------------------|
D|--4-4--2--2-2------2----0--0-0---4-4--2-2-2-2-2--4--4-4--------------------------|
A|--4-4--0--0-0--2-4---2-4---------4-4--0-0-0-2-2--4--4-4--------------------------|
E|--2-2----------------------------2-2--------0-0--2--2-2--------------------------|(x2)


[Bridge]

e|-----------------------------------------------------------------------------|
B|-----------------------------------------------------------------------------|
G|--/9-9-----------------------------------------------------------------------|
D|-------9-9/11--11-11-11-11--11-11-11-9\7-7-------8 times---------------------|
A|-----------------------------------------------------------------------------|
E|-----------------------------------------------------------------------------|


[Outro]

e|-------0--0-0-----------0--0-0--------0-0-0---------------------------------------|
B|-------0--0-0-----------3--3-3--------0-0-0---------------------------------------|
G|-------2--2-2-----------2--2-2--------2-2-2-1-1-----------------------------------|
D|--4-4--2--2-2------2----0--0-0---4-4--2-2-2-2-2--4--4-4---------------------------|
A|--4-4--0--0-0--2-4---2-4---------4-4--0-0-0-2-2--4--4-4---------------------------|
E|--2-2----------------------------2-2--------0-0--2--2-2---------------------------|


************************************

| /   slide up
| \   slide down
| h   hammer-on
| p   pull-off
| ~   vibrato
| +   harmonic
| x   Mute note
| b   Bend
| pb  Pre-bend
| br  Bend release
| pbr Pre-bend release
| brb Bend release bend

************************************

            
            
Suggest correction
Creating personal tab
Creating personal tab
You can edit any tab online and save it as your Personal.

You can edit, replace or remove any tab part or add personal notes – all changes will be seen only by you.

Personal tabs can be accessed anytime from any device, even offline.
Learn more »
comments
print report bad tab
3 comments total.
+1 reply
alecober 47 Oct 13, 2016 07:44 PM

This is wonderful! Thanks a ton.

-1 reply
lukeburgess201 10 Aug 04, 2017 11:08 AM

the ----2----- riff sounds like it should be ----2-----
2-4---2-4- 2-4---2-0-
(sorry if it doesn't make much sense)

0 reply
DankTarantula 10 Sep 11, 2017 05:27 PM

What effects are used for this song?

guest
You may want to rate the tab now too:
select rating
Wanna post a correction for this tab? Suggest correction