Oops, an error
Loading. Please wait.

Gum tab

version 2
version 2

Whole song

  • This tab provides the correct way to play "Gum" by... Show more
2,690 views 15 this week
no commentswrite comment
1 2 3 4 5
x 3
add to favorites
×
Save as Personal and add changes to this tab that will be seen only by you. Learn more ›
×
You can save this tab as Personal to edit and correct it or add notes. All changes will be seen only by you. Learn more »
launch autoscroll
font size
0
reset
how to read this tab
guitar tuner
edit
Autoscroll
slow
fast
+/-
esc
set tempo
stop
Author
Difficulty
Moose Blood - Gum
Tuning: standard

[intro/verse guitar 1]
e|---------------------------------------------------------------------------|
B|---------------------------------------------------------------------------|
G|---------------------------------------------------------------------------|
D|---------------------------------------------------------------------------|
A|--9-9--11-11-11-11--7-7--9-9-9-9-------------------------------------------|
E|--0-0--0--0--0--0---9-9--7-7-7-7-------------------------------------------|

pretty standard strumming pattern, you'll figure it out immediately

[guitar 2 intro/verse]
e|----0----0----0----0---0---0---0--0----------------------------------------|
B|---------------------------------------------------------------------------|
G|-11---11---13---13---8---8---9--9------------------------------------------|
D|---------------------------------------------------------------------------|
A|---------------------------------------------------------------------------|
E|---------------------------------------------------------------------------|

[guitar 1 transition thing]
e|---------------------------------------------------------------------------|
B|---------------------------------------------------------------------------|
G|-6-6--6b-------------------------------------------------------------------|
D|-7-7--7b-------------------------------------------------------------------|
A|-7-7--7b-------------------------------------------------------------------|
E|-5-5--5b-------------------------------------------------------------------|

you basically bend the last A chord a few times
[pre-bridge & outro bit guitar 1 and 2]
e|------------------2-2------------------------------------------------------|
B|-0-0--0-0---------3-3-----0-0-0-0-----0-0----------------------------------|
G|-2-2--2-2---------2-2-----2-2-2-2-1-1-2-2----------------------------------|
D|-4-4--2-2-----2---0-0-----4-4-2-2-2-2-4-4----------------------------------|
A|-4-4--0-0-2-4---0---------4-4-0-0-2-2-4-4----------------------------------|
E|----------------------------------0-0--------------------------------------|
  F#m  A   (riff)   D       F#m A   E  F#m

[bridge]
[guitar 1 plays the F#m A E F#m progression from the pre-bridge
[guitar 2]
e|---------------------------------------------------------------------------|
B|---------------------------------------------------------------------------|
G|--/9-9-4-4/6--6-6-6-6--6-6-6/4/2-2-----------------------------------------|
D|---------------------------------------------------------------------------|
A|---------------------------------------------------------------------------|
E|---------------------------------------------------------------------------|

[guitar 3]
e|--/12-12-7-7/9--9-9-9-9-9--9-9-9/7/5-5-------------------------------------|
B|---------------------------------------------------------------------------|
G|--(bend every note a lot)--------------------------------------------------|
D|---------------------------------------------------------------------------|
A|---------------------------------------------------------------------------|
E|---------------------------------------------------------------------------|

            
            
Suggest correction
Creating personal tab
Creating personal tab
You can edit any tab online and save it as your Personal.

You can edit, replace or remove any tab part or add personal notes – all changes will be seen only by you.

Personal tabs can be accessed anytime from any device, even offline.
Learn more »
Give kudos to tab author, rate the tab!
1 2 3 4 5
comments
print report bad tab
guest
You may want to rate the tab now too:
select rating
Wanna post a correction for this tab? Suggest correction