Oops, an error
Loading. Please wait.

I Hope Youre Missing Me Tab

version 1
version 1

Whole song

  • Provides video play along. All rhythm guitar sections are included in this tab.
331 views 21 this week
2 commentsread comments
1 2 3 4 5
1 last vote to show rating
add to favorites
launch autoscroll
font size
0
reset
how to read this tab
guitar tuner
Autoscroll
slow
fast
+/-
esc
set tempo
stop
Help us to improve Ultimate-Guitar.com Take our survey!
×
I HOPE YOU’RE MISSING ME – MOOSE BLOOD


[Intro]

E|---------------------------------------|
B|---------------------------------------|
G|---------------------------------------| 
D|-----0-------0-------0-------0---------|
A|-2-2---2-0-0---0-----------------------|
E|-----------------3-3---3-3-3---3-------|(x4)


[Verse 1]

E|---------------------------------------|
B|---------------------------------------|
G|---------------------------------------| 
D|-----0-------0-------0-------0---------|
A|-2-2---2-0-0---0-----------------------|
E|-----------------3-3---3-3-3---3-------|(x4)

E|----------------------------------------------------|
B|-------5-5------------------------------------------|
G|----7------5-5-7-7----------------------------------| 
D|-7-----------------5-5-7-7--------------------------|
A|---------------------------5-5-7-7-3-3-5-5----------|
E|-------------------------------------------3-3-5-5--|(x2)


[Refrain]

E|-----------------------------------------------------------------------------------------------|
B|---0-------0--------7-7-7----0-------0--------7-7-7----0-------0--------7-7-7----0-------------|
G|-7---7-9-9---7-7--7--------7---7-9-9---7-7--7--------7---7-9-9---7-7--7--------7---7-9-9-7tr~--|
D|-----------------------------------------------------------------------------------------------|
A|-----------------------------------------------------------------------------------------------|
E|-----------------------------------------------------------------------------------------------|


[Verse 2]

E|---------------------------------------|
B|---------------------------------------|
G|---------------------------------------| 
D|-----0-------0-------0-------0---------|
A|-2-2---2-0-0---0-----------------------|
E|-----------------3-3---3-3-3---3-------|(x4)

E|-----0--------5------|
B|---7---7----8---8----|
G|-7--------7----------|
D|---------------------|
A|---------------------|
E|---------------------|(x4)

E|-----------------------------------------|
B|-----------------------------------------|
G|-----------------------------------7~----|
D|-4---------------------------------7~----|
A|-4-4-4-4-4-4-4-4-4-5-5-5-5-5-5-5-5-5~----|
E|-2-2-2-2-2-2-2-2-2-3-3-3-3-3-3-3-3-------|
PM   . . . . . . . . . . . . . . . .


[Chorus]

E|--------------------------------------------------------------------|
B|--------------------------------------------------------------------|
G|-----------------7-7-7-7-7-7-7-7-----------------7-7-7-7-7-7-7-7----|
D|-5-5-5-5-5-5-5-5-7-7-7-7-7-7-7-7-5-5-5-5-5-5-5-5-7-7-7-7-7-7-7-7----|
A|-5-5-5-5-5-5-5-5-5-5-5-5-5-5-5-5-5-5-5-5-5-5-5-5-5-5-5-5-5-5-5-5----|
E|-3-3-3-3-3-3-3-3-----------------3-3-3-3-3-3-3-3--------------------|
                                                                         
E|--------------------------------------------------------------------|
B|--------------------------------------------------------------------|
G|-------------------------------------------------7-7-7-7-7-7-7-7----|
D|-5-5-5-5-5-5-5-5-7-7-7-7-7-7-7-7-5-5-5-5-5-5-5-5-7-7-7-7-7-7-7-7----|
A|-5-5-5-5-5-5-5-5-7-7-7-7-7-7-7-7-5-5-5-5-5-5-5-5-5-5-5-5-5-5-5-5----|
E|-3-3-3-3-3-3-3-3-5-5-5-5-5-5-5-5-3-3-3-3-3-3-3-3--------------------|

E|--------------------------------------------------------------------|
B|--------------------------------------------------------------------|
G|-----------------7-7-7-7-7-7-7-7-----------------7-7-7-7-7-7-7-7----|
D|-5-5-5-5-5-5-5-5-7-7-7-7-7-7-7-7-5-5-5-5-5-5-5-5-7-7-7-7-7-7-7-7----|
A|-5-5-5-5-5-5-5-5-5-5-5-5-5-5-5-5-5-5-5-5-5-5-5-5-5-5-5-5-5-5-5-5----|
E|-3-3-3-3-3-3-3-3-----------------3-3-3-3-3-3-3-3--------------------|

E|----------------------------------------------------|
B|----------------------------------------------------|
G|----------------------------------------------------|
D|-5-5-5-5-5-5-5-5-7-7-7-7-7-7-7-7-5-5-5-5-5-5-5-5----|
A|-5-5-5-5-5-5-5-5-7-7-7-7-7-7-7-7-5-5-5-5-5-5-5-5----|
E|-3-3-3-3-3-3-3-3-5-5-5-5-5-5-5-5-3-3-3-3-3-3-3-3----|


[Refrain]

E|-----------------------------------------------------------------------------------------------|
B|---0-------0--------7-7-7----0-------0--------7-7-7----0-------0--------7-7-7----0-------------|
G|-7---7-9-9---7-7--7--------7---7-9-9---7-7--7--------7---7-9-9---7-7--7--------7---7-9-9-7tr~--|
D|-----------------------------------------------------------------------------------------------|
A|-----------------------------------------------------------------------------------------------|
E|-----------------------------------------------------------------------------------------------|


[Bridge]

E|---------------5------------------------5-----------|
B|-------------------5------------------------5-------|
G|---------7-------7---7------------7-------7---7-----|
D|---7---7-----7---------7----7---7-----7---------7---|
A|-5---5-----5--------------5---5-----5---------------|
E|----------------------------------------------------|

E|-------------------------------------------------------------------------|
B|-------------------------------------------------------------------------|
G|--12tr----11tr----9tr----11tr----12tr----11tr----9tr----11tr-------7~----|
D|-------------------------------------------------------------------7~----|
A|-------------------------------------------------------------------5~----|
E|-------------------------------------------------------------------------|


[Chorus]

E|--------------------------------------------------------------------|
B|--------------------------------------------------------------------|
G|-----------------7-7-7-7-7-7-7-7-----------------7-7-7-7-7-7-7-7----|
D|-5-5-5-5-5-5-5-5-7-7-7-7-7-7-7-7-5-5-5-5-5-5-5-5-7-7-7-7-7-7-7-7----|
A|-5-5-5-5-5-5-5-5-5-5-5-5-5-5-5-5-5-5-5-5-5-5-5-5-5-5-5-5-5-5-5-5----|
E|-3-3-3-3-3-3-3-3-----------------3-3-3-3-3-3-3-3--------------------|
                                                                         
E|--------------------------------------------------------------------|
B|--------------------------------------------------------------------|
G|-------------------------------------------------7-7-7-7-7-7-7-7----|
D|-5-5-5-5-5-5-5-5-7-7-7-7-7-7-7-7-5-5-5-5-5-5-5-5-7-7-7-7-7-7-7-7----|
A|-5-5-5-5-5-5-5-5-7-7-7-7-7-7-7-7-5-5-5-5-5-5-5-5-5-5-5-5-5-5-5-5----|
E|-3-3-3-3-3-3-3-3-5-5-5-5-5-5-5-5-3-3-3-3-3-3-3-3--------------------|

E|--------------------------------------------------------------------|
B|--------------------------------------------------------------------|
G|-----------------7-7-7-7-7-7-7-7-----------------7-7-7-7-7-7-7-7----|
D|-5-5-5-5-5-5-5-5-7-7-7-7-7-7-7-7-5-5-5-5-5-5-5-5-7-7-7-7-7-7-7-7----|
A|-5-5-5-5-5-5-5-5-5-5-5-5-5-5-5-5-5-5-5-5-5-5-5-5-5-5-5-5-5-5-5-5----|
E|-3-3-3-3-3-3-3-3-----------------3-3-3-3-3-3-3-3--------------------|

E|----------------------------------------------------|
B|----------------------------------------------------|
G|----------------------------------------------------|
D|-5-5-5-5-5-5-5-5-7-7-7-7-7-7-7-7-5-5-5-5-5-5-5-5----|
A|-5-5-5-5-5-5-5-5-7-7-7-7-7-7-7-7-5-5-5-5-5-5-5-5----|
E|-3-3-3-3-3-3-3-3-5-5-5-5-5-5-5-5-3-3-3-3-3-3-3-3----|

E|-------------------|
B|---0---------------|
G|-7---7-9-9-7tr~----|
D|-------------------|
A|-------------------|
E|-------------------|
   



************************************

| ~  Vibrato
| tr tremolo

************************************
Suggest correction
Give kudos to tab author, rate the tab!
1 2 3 4 5
comments
print report bad tab
2 comments total.
0 reply
riseituptothestreets 22 Sep 15, 2016 06:36 PM

Thx Man <3

+1 reply
oursummeranthem 426 Sep 16, 2016 07:31 AM

You're welcome :)

guest
You may want to rate the tab now too:
select rating
Wanna post a correction for this tab? Suggest correction