Oops, an error
Loading. Please wait.

I Hope Youre Missing Me Tab

version 2
version 2

Whole song

  • Provides video play along. All rhythm guitar sections are included in this tab.
358 views 3 this week
no commentswrite comment
1 2 3 4 5
2 more votes to show rating
add to favorites
launch autoscroll
font size
0
reset
how to read this tab
guitar tuner
Autoscroll
slow
fast
+/-
esc
set tempo
stop
Author
Difficulty
novice
About this tab version
Provides video play along. All rhythm guitar sections are included in this tab. Was this info helpful? Yes No
Track: I Hope You're Missing Me
Artist: Moose Blood
Album: I'll Keep You In Mind, From Time To Time (2014)
Tuning: Standard E (E A D G B e)

Tabbed by: Noah Maranesi
Website: https://instagram.com/n04hz_ark

Video Playalong: https://youtu.be/ACMYnU61Vq8


Verse (0:01)

    "Remember when you said you'd stay..."

e|---------------------------------|
B|---------------------------------|
G|---------------------------------|
D|-----0-------0-------0-----0-4-0-|
A|---------------------------------|
E|-7-7---7-5-5---5-3-3---3-3-------|


Break (0:45) (exact strumming not shown)

                           x3
e|---------------------------|
B|---------------------------|
G|---------------------------|
D|--4-4-4-4--4-4--4--4--4--4-|
A|--2-2-0-0------------------|
E|-----------3-3--3--3--3--3-|

e|---------------------------|
B|---------------------------|
G|---------------------------|
D|--4-4-4-4--4-4--4--4--4--4-|
A|--2-2-0-0------------------|
E|-----------0-0--0--0--0--0-|


Verse (1:00)

     "Remember when you met my dad..."

e|---------------------------------|
B|---------------------------------|
G|---------------------------------|
D|-----0-------0-------0-----0-4-0-|
A|---------------------------------|
E|-7-7---7-5-5---5-3-3---3-3-------|


Break (1:29) (exact strumming not shown)

e|---------------------------------|
B|---------------------------------|
G|---------------------------------|
D|-4-4-4-4-4-4-4-4-5-5-5-5-5-5-5-5-|
A|-5-5-5-5-5-5-5-5-5-5-5-5-5-5-5-5-|
E|-2-2-2-2-2-2-2-2-3-3-3-3-3-3-3-3-|
   * * * * * * * * * * * * * * * *

Chorus (1:32) (exact strumming not shown)

    "IT TAKES ME BACK TO GROWING UP..."

                        x3
e|------------------------|------------------------|
B|------------------------|------------------------|
G|-7--7--7--7-------------|------------------------|
D|-7--7--7--7--4--4--4--4-|-7--7--7--7--4--4--4--4-|
A|-5--5--5--5--5--5--5--5-|-7--7--7--7--5--5--5--5-|
E|-------------3--3--3--3-|-5--5--5--5--3--3--3--3-|

    "WE TALKED FOR MONTHS..."

                        x3
e|------------------------|------------------------|
B|------------------------|------------------------|
G|-7--7--7--7-------------|------------------------|
D|-7--7--7--7--4--4--4--4-|-7--7--7--7--4--4--4--4-|
A|-5--5--5--5--5--5--5--5-|-7--7--7--7--5--5--5--5-|
E|-------------3--3--3--3-|-5--5--5--5--3--3--3--3-|


Break (2:02) (exact strumming not shown)

                           x3
e|---------------------------|
B|---------------------------|
G|---------------------------|
D|--4-4-4-4--4-4--4--4--4--4-|
A|--2-2-0-0------------------|
E|-----------3-3--3--3--3--3-|

e|---------------------------|
B|---------------------------|
G|---------------------------|
D|--4-4-4-4--4-4--4--4--4--4-|
A|--2-2-0-0------------------|
E|-----------0-0--0--0--0--0-|


Solo (2:24) (exact strumming not shown)


e|---------------------------------------------|
B|---------------------------------------------|
G|-12-12-12-12-11-11-11-11-9-9-9-9-11-11-11-11-|
D|---------------------------------------------|
A|---------------------------------------------|
E|---------------------------------------------|


Chorus (2:39) (exact strumming not shown)

    "IT TAKES ME BACK TO GROWING UP..."

                        x3
e|------------------------|------------------------|
B|------------------------|------------------------|
G|-7--7--7--7-------------|------------------------|
D|-7--7--7--7--4--4--4--4-|-7--7--7--7--4--4--4--4-|
A|-5--5--5--5--5--5--5--5-|-7--7--7--7--5--5--5--5-|
E|-------------3--3--3--3-|-5--5--5--5--3--3--3--3-|

    "WE TALKED FOR MONTHS..."
    
                        x3
e|------------------------|------------------------|
B|------------------------|------------------------|
G|-7--7--7--7-------------|------------------------|
D|-7--7--7--7--4--4--4--4-|-7--7--7--7--4--4--4--4-|
A|-5--5--5--5--5--5--5--5-|-7--7--7--7--5--5--5--5-|
E|-------------3--3--3--3-|-5--5--5--5--3--3--3--3-|


Break (3:08) (exact strumming not shown)

e|---------------------------|
B|---------------------------|
G|---------------------------|
D|--4-4-4-4--4-4-------------|
A|--2-2-0-0------------------|
E|-----------0-0-------------|
Suggest correction
Give kudos to tab author, rate the tab!
1 2 3 4 5
comments
print report bad tab
guest
You may want to rate the tab now too:
select rating
Wanna post a correction for this tab? Suggest correction