Oops, an error
Loading. Please wait.

Knuckles tab

version 1
version 1

Whole song

Video

6,388 views 51 this week
3 commentsread comments
1 2 3 4 5
x 3
add to favorites
×
Save as Personal and add changes to this tab that will be seen only by you. Learn more ›
×
You can save this tab as Personal to edit and correct it or add notes. All changes will be seen only by you. Learn more »
launch autoscroll
font size
0
reset
how to read this tab
guitar tuner
edit
Autoscroll
slow
fast
+/-
esc
set tempo
stop
Tuning: C# G# C# F# A# D#


[Intro]

D#|---------------------------------------------------------------------------|
A#|---------------------------------------------------------------------------|
F#|-5-5-5-5-5-4-4-4-4-4-4-4-4-4-4-7-7-7-7-7-7-7-7-4-4-4-4-4-4-4-5-5-5-5-4-4-4-|
C#|-5-5-5-5-5-5-5-5-5-5-5-5-5-5-5-5-5-5-5-5-5-5-5-5-5-5-5-5-5-5-5-5-5-5-5-5-5-|
G#|---------------------------------------------------------------------------|
C#|---------------------------------------------------------------------------|

C#|---------------------------------------------------------------------------|
G#|---------------------------------------------------------------------------|
E |-5-5-5-5-5-4-4-4-4-4-4-4-4-4-4-5-5-5-5-5-5-5-5-4-4-4-4-4-4-4-5-5-5-5-4-4-4-|
B |-3-3-3-3-3-3-3-3-3-3-3-3-3-3-3-3-3-3-3-3-3-3-3-3-3-3-3-3-3-3-3-3-3-3-3-3-3-|
F#|---------------------------------------------------------------------------|
C#|---------------------------------------------------------------------------|


[Verse]  

C#|---------------------------------------------------------------------------|
G#|---------------------------------------------------------------------------|
E |-5-5-5-5-5-4-4-4-4-4-4-4-4-4-4-7-7-7-7-7-7-7-7-4-4-4-4-4-4-4-5-5-5-5-4-4-4-|
B |-5-5-5-5-5-5-5-5-5-5-5-5-5-5-5-5-5-5-5-5-5-5-5-5-5-5-5-5-5-5-5-5-5-5-5-5-5-|
F#|---------------------------------------------------------------------------|
C#|---------------------------------------------------------------------------|
                                                                                  x4
C#|---------------------------------------------------------------------------|
G#|---------------------------------------------------------------------------|
E |-5-5-5-5-5-4-4-4-4-4-4-4-4-4-4-5-5-5-5-5-5-5-5-4-4-4-4-4-4-4-5-5-5-5-4-4-4-|
B |-3-3-3-3-3-3-3-3-3-3-3-3-3-3-3-3-3-3-3-3-3-3-3-3-3-3-3-3-3-3-3-3-3-3-3-3-3-|
F#|---------------------------------------------------------------------------|
C#|---------------------------------------------------------------------------|


[Pre chorus]

C#|---------------------------------------------------------------------------|
G#|---------------------------------------------------------------------------|
E |-5--5---5-5-5-5--5--5--5--5------------------------------------------------|
B |-5--5---5-5-5-5--5--5--5--5------------------------------------------------|
F#|-3--3---3-3-3-3--3--3--3--3------------------------------------------------|
C#|---------------------------------------------------------------------------|


[Chorus]

C#|---------------------------------------------------------------------------|
G#|---------------------------------------------------------------------------|
E |---------------------------------------------------------------------------|
B |-10-10-10-10-10-10-10-10-10-10-10-10-9--9--9--9--9--9--9--9--9--9--9--9----|
F#|-10-10-10-10-10-10-10-10-10-10-10-10-9--9--9--9--9--9--9--9--9--9--9--9----|
C#|-7--7--7--7--7--7--7--7--7--7--7--7--5--5--5--5--5--5--5--5--5--5--5--5----|

C#|---------------------------------------------------------------------------|
G#|---------------------------------------------------------------------------|
E |-5--5--5--5--5--5--5--5--5--5--5--5----------------------------------------|
B |-5--5--5--5--5--5--5--5--5--5--5--5--5--5--5--5--5--5--5--5--5--5--5--5----|
F#|-3--3--3--3--3--3--3--3--3--3--3--3--3--3--3--3--3--3--3--3--3--3--3--3----|
C#|-------------------------------------3--3--3--3--3--3--3--3--3--3--3--3----|

C#|---------------------------------------------------------------------------|
G#|---------------------------------------------------------------------------|
E |---------------------------------------------------------------------------|
B |-10-10-10-10-10-10-10-10-10-10-10-10-9--9--9--9--9--9--9--9--9--9--9--9----|
F#|-10-10-10-10-10-10-10-10-10-10-10-10-9--9--9--9--9--9--9--9--9--9--9--9----|
C#|-7--7--7--7--7--7--7--7--7--7--7--7--5--5--5--5--5--5--5--5--5--5--5--5----|

C#|---------------------------------------------------------------------------|
G#|---------------------------------------------------------------------------|
E |---------------------------------------------------------------------------|
B |--5--5--5--5--5--5--5--5--5--5--5--5--5--5--5--5--5--5--5--5--5--5--5--5---|
F#|--3--3--3--3--3--3--3--3--3--3--3--3--3--3--3--3--3--3--3--3--3--3--3--3---|
C#|--3--3--3--3--3--3--3--3--3--3--3--3--3--3--3--3--3--3--3--3--3--3--3--3---|

C#|---------------------------------------------------------------------------|
G#|---------------------------------------------------------------------------|
E |---------------------------------------------------------------------------|
B |-10-10-10-10-10-10-10-10-10-10-10-10-9--9--9--9--9--9--9--9--9--9--9--9----|
F#|-10-10-10-10-10-10-10-10-10-10-10-10-9--9--9--9--9--9--9--9--9--9--9--9----|
C#|-7--7--7--7--7--7--7--7--7--7--7--7--5--5--5--5--5--5--5--5--5--5--5--5----|

C#|---------------------------------------------------------------------------|
G#|---------------------------------------------------------------------------|
E |-5--5--5--5--5--5--5--5--5--5--5--5----------------------------------------|
B |-5--5--5--5--5--5--5--5--5--5--5--5--5--5--5--5--5--5--5--5--5--5--5--5----|
F#|-3--3--3--3--3--3--3--3--3--3--3--3--3--3--3--3--3--3--3--3--3--3--3--3----|
C#|-------------------------------------3--3--3--3--3--3--3--3--3--3--3--3----|

C#|---------------------------------------------------------------------------|
G#|---------------------------------------------------------------------------|
E |---------------------------------------------------------------------------|
B |-10-10-10-10-10-10-10-10-10-10-10-10-9--9--9--9--9--9--9--9--9--9--9--9----|
F#|-10-10-10-10-10-10-10-10-10-10-10-10-9--9--9--9--9--9--9--9--9--9--9--9----|
C#|-7--7--7--7--7--7--7--7--7--7--7--7--5--5--5--5--5--5--5--5--5--5--5--5----|

C#|---------------------------------------------------------------------------|
G#|---------------------------------------------------------------------------|
E |---------------------------------------------------------------------------|
B |--5--5-----------5--5--5-----------5--5--5-----------------5--5--5--5--5---|
F#|--3--3-----------3--3--3-----------3--3--3-----------------3--3--3--3--3---|
C#|--3--3-----------3--3--3-----------3--3--3-----------------3--3--3--3--3---|


[Verse 2]  

C#|---------------------------------------------------------------------------|
G#|---------------------------------------------------------------------------|
E |-5-5-5-5-5-4-4-4-4-4-4-4-4-4-4-7-7-7-7-7-7-7-7-4-4-4-4-4-4-4-5-5-5-5-4-4-4-|
B |-5-5-5-5-5-5-5-5-5-5-5-5-5-5-5-5-5-5-5-5-5-5-5-5-5-5-5-5-5-5-5-5-5-5-5-5-5-|
F#|---------------------------------------------------------------------------|
C#|---------------------------------------------------------------------------|
                                                                                  x4
C#|---------------------------------------------------------------------------|
G#|---------------------------------------------------------------------------|
E |-5-5-5-5-5-4-4-4-4-4-4-4-4-4-4-5-5-5-5-5-5-5-5-4-4-4-4-4-4-4-5-5-5-5-4-4-4-|
B |-3-3-3-3-3-3-3-3-3-3-3-3-3-3-3-3-3-3-3-3-3-3-3-3-3-3-3-3-3-3-3-3-3-3-3-3-3-|
F#|---------------------------------------------------------------------------|
C#|---------------------------------------------------------------------------|


[Pre chorus]

C#|---------------------------------------------------------------------------|
G#|---------------------------------------------------------------------------|
E |-5--5---5-5-5-5--5--5--5--5------------------------------------------------|
B |-5--5---5-5-5-5--5--5--5--5------------------------------------------------|
F#|-3--3---3-3-3-3--3--3--3--3------------------------------------------------|
C#|---------------------------------------------------------------------------|


[Chorus]

C#|---------------------------------------------------------------------------|
G#|---------------------------------------------------------------------------|
E |---------------------------------------------------------------------------|
B |-10-10-10-10-10-10-10-10-10-10-10-10-9--9--9--9--9--9--9--9--9--9--9--9----|
F#|-10-10-10-10-10-10-10-10-10-10-10-10-9--9--9--9--9--9--9--9--9--9--9--9----|
C#|-7--7--7--7--7--7--7--7--7--7--7--7--5--5--5--5--5--5--5--5--5--5--5--5----|

C#|---------------------------------------------------------------------------|
G#|---------------------------------------------------------------------------|
E |-5--5--5--5--5--5--5--5--5--5--5--5----------------------------------------|
B |-5--5--5--5--5--5--5--5--5--5--5--5--5--5--5--5--5--5--5--5--5--5--5--5----|
F#|-3--3--3--3--3--3--3--3--3--3--3--3--3--3--3--3--3--3--3--3--3--3--3--3----|
C#|-------------------------------------3--3--3--3--3--3--3--3--3--3--3--3----|

C#|---------------------------------------------------------------------------|
G#|---------------------------------------------------------------------------|
E |---------------------------------------------------------------------------|
B |-10-10-10-10-10-10-10-10-10-10-10-10-9--9--9--9--9--9--9--9--9--9--9--9----|
F#|-10-10-10-10-10-10-10-10-10-10-10-10-9--9--9--9--9--9--9--9--9--9--9--9----|
C#|-7--7--7--7--7--7--7--7--7--7--7--7--5--5--5--5--5--5--5--5--5--5--5--5----|

C#|---------------------------------------------------------------------------|
G#|---------------------------------------------------------------------------|
E |---------------------------------------------------------------------------|
B |--5--5--5--5--5--5--5--5--5--5--5--5--5--5--5--5--5--5--5--5--5--5--5--5---|
F#|--3--3--3--3--3--3--3--3--3--3--3--3--3--3--3--3--3--3--3--3--3--3--3--3---|
C#|--3--3--3--3--3--3--3--3--3--3--3--3--3--3--3--3--3--3--3--3--3--3--3--3---|

C#|---------------------------------------------------------------------------|
G#|---------------------------------------------------------------------------|
E |---------------------------------------------------------------------------|
B |-10-10-10-10-10-10-10-10-10-10-10-10-9--9--9--9--9--9--9--9--9--9--9--9----|
F#|-10-10-10-10-10-10-10-10-10-10-10-10-9--9--9--9--9--9--9--9--9--9--9--9----|
C#|-7--7--7--7--7--7--7--7--7--7--7--7--5--5--5--5--5--5--5--5--5--5--5--5----|

C#|---------------------------------------------------------------------------|
G#|---------------------------------------------------------------------------|
E |-5--5--5--5--5--5--5--5--5--5--5--5----------------------------------------|
B |-5--5--5--5--5--5--5--5--5--5--5--5--5--5--5--5--5--5--5--5--5--5--5--5----|
F#|-3--3--3--3--3--3--3--3--3--3--3--3--3--3--3--3--3--3--3--3--3--3--3--3----|
C#|-------------------------------------3--3--3--3--3--3--3--3--3--3--3--3----|

C#|---------------------------------------------------------------------------|
G#|---------------------------------------------------------------------------|
E |---------------------------------------------------------------------------|
B |-10-10-10-10-10-10-10-10-10-10-10-10-9--9--9--9--9--9--9--9--9--9--9--9----|
F#|-10-10-10-10-10-10-10-10-10-10-10-10-9--9--9--9--9--9--9--9--9--9--9--9----|
C#|-7--7--7--7--7--7--7--7--7--7--7--7--5--5--5--5--5--5--5--5--5--5--5--5----|

C#|---------------------------------------------------------------------------|
G#|---------------------------------------------------------------------------|
E |---------------------------------------------------------------------------|
B |--5--5-----------5--5--5-----------5--5--5-----------------5--5--5--5--5---|
F#|--3--3-----------3--3--3-----------3--3--3-----------------3--3--3--3--3---|
C#|--3--3-----------3--3--3-----------3--3--3-----------------3--3--3--3--3---|


[Bridge]

C#|------0--------0-------------------------------0---------0-----------------------|
G#|----3---3----3---3------1---------1---------3----3-----3---0------1--------1-----|
E |-5---------0----------0---0-----0---0-----5----------0----------0---0----0---0---|
B |--------------------3---------3-------------------------------3--------3---------|
F#|---------------------------------------------------------------------------------|
C#|---------------------------------------------------------------------------------|

C#|-0-0-0-0-0-0-0-0-0-0-0-0-0--0-0-0-0-0-0-0-0-0-0-0-0-0--0-0-0-0-0-0-0-0-0-0-0-0-0-|
G#|-1-1-1-3-3-3-5-5-5-6-6-5-6--1-1-1-3-3-3-5-5-5-6-6-5-6--1-1-1-3-3-3-5-5-5-6-6-5-6-|
E |---------------------------------------------------------------------------------|
B |---------------------------------------------------------------------------------|
F#|---------------------------------------------------------------------------------|
C#|---------------------------------------------------------------------------------|

C#|---------------------------------------------------------------------------------|
G#|---------------------------------------------------------------------------------|
E |---------------------------------------------------------------------------------|
B |-3-3-3--5-5-5--7-7-7--9-9-9--10-10-10--12-12-12----------------------------------|
F#|-3-3-3--5-5-5--7-7-7--9-9-9--10-10-10--12-12-12----------------------------------|
C#|-3-3-3--5-5-5--7-7-7--9-9-9--10-10-10--12-12-12----------------------------------|


[Chorus]

C#|---------------------------------------------------------------------------|
G#|---------------------------------------------------------------------------|
E |---------------------------------------------------------------------------|
B |-10-10-10-10-10-10-10-10-10-10-10-10-9--9--9--9--9--9--9--9--9--9--9--9----|
F#|-10-10-10-10-10-10-10-10-10-10-10-10-9--9--9--9--9--9--9--9--9--9--9--9----|
C#|-7--7--7--7--7--7--7--7--7--7--7--7--5--5--5--5--5--5--5--5--5--5--5--5----|

C#|---------------------------------------------------------------------------|
G#|---------------------------------------------------------------------------|
E |-5--5--5--5--5--5--5--5--5--5--5--5----------------------------------------|
B |-5--5--5--5--5--5--5--5--5--5--5--5--5--5--5--5--5--5--5--5--5--5--5--5----|
F#|-3--3--3--3--3--3--3--3--3--3--3--3--3--3--3--3--3--3--3--3--3--3--3--3----|
C#|-------------------------------------3--3--3--3--3--3--3--3--3--3--3--3----|

C#|---------------------------------------------------------------------------|
G#|---------------------------------------------------------------------------|
E |---------------------------------------------------------------------------|
B |-10-10-10-10-10-10-10-10-10-10-10-10-9--9--9--9--9--9--9--9--9--9--9--9----|
F#|-10-10-10-10-10-10-10-10-10-10-10-10-9--9--9--9--9--9--9--9--9--9--9--9----|
C#|-7--7--7--7--7--7--7--7--7--7--7--7--5--5--5--5--5--5--5--5--5--5--5--5----|

C#|---------------------------------------------------------------------------|
G#|---------------------------------------------------------------------------|
E |---------------------------------------------------------------------------|
B |--5--5--5--5--5--5--5--5--5--5--5--5--5--5--5--5--5--5--5--5--5--5--5--5---|
F#|--3--3--3--3--3--3--3--3--3--3--3--3--3--3--3--3--3--3--3--3--3--3--3--3---|
C#|--3--3--3--3--3--3--3--3--3--3--3--3--3--3--3--3--3--3--3--3--3--3--3--3---|

C#|---------------------------------------------------------------------------|
G#|---------------------------------------------------------------------------|
E |---------------------------------------------------------------------------|
B |-10-10-10-10-10-10-10-10-10-10-10-10-9--9--9--9--9--9--9--9--9--9--9--9----|
F#|-10-10-10-10-10-10-10-10-10-10-10-10-9--9--9--9--9--9--9--9--9--9--9--9----|
C#|-7--7--7--7--7--7--7--7--7--7--7--7--5--5--5--5--5--5--5--5--5--5--5--5----|

C#|---------------------------------------------------------------------------|
G#|---------------------------------------------------------------------------|
E |-5--5--5--5--5--5--5--5--5--5--5--5----------------------------------------|
B |-5--5--5--5--5--5--5--5--5--5--5--5--5--5--5--5--5--5--5--5--5--5--5--5----|
F#|-3--3--3--3--3--3--3--3--3--3--3--3--3--3--3--3--3--3--3--3--3--3--3--3----|
C#|-------------------------------------3--3--3--3--3--3--3--3--3--3--3--3----|

C#|---------------------------------------------------------------------------|
G#|---------------------------------------------------------------------------|
E |---------------------------------------------------------------------------|
B |-10-10-10-10-10-10-10-10-10-10-10-10-9--9--9--9--9--9--9--9--9--9--9--9----|
F#|-10-10-10-10-10-10-10-10-10-10-10-10-9--9--9--9--9--9--9--9--9--9--9--9----|
C#|-7--7--7--7--7--7--7--7--7--7--7--7--5--5--5--5--5--5--5--5--5--5--5--5----|

C#|---------------------------------------------------------------------------|
G#|---------------------------------------------------------------------------|
E |---------------------------------------------------------------------------|
B |--5--5-----------5--5--5-----------5--5--5-----------------5--5--5--5--5---|
F#|--3--3-----------3--3--3-----------3--3--3-----------------3--3--3--3--3---|
C#|--3--3-----------3--3--3-----------3--3--3-----------------3--3--3--3--3---|

C#|---------------------------------------------------------------------------|
G#|---------------------------------------------------------------------------|
E |-5-5-5-5-5-4-4-4-4-4-4-4-4-4-4-7-7-7-7-7-7-7-7-4-4-4-4-4-4-4-5-5-5-5-4-4-4-|
B |-5-5-5-5-5-5-5-5-5-5-5-5-5-5-5-5-5-5-5-5-5-5-5-5-5-5-5-5-5-5-5-5-5-5-5-5-5-|
F#|---------------------------------------------------------------------------|
C#|---------------------------------------------------------------------------|


************************************

| x  Dead note

************************************

            
            
Suggest correction
Creating personal tab
Creating personal tab
You can edit any tab online and save it as your Personal.

You can edit, replace or remove any tab part or add personal notes – all changes will be seen only by you.

Personal tabs can be accessed anytime from any device, even offline.
Learn more »
Give kudos to tab author, rate the tab!
1 2 3 4 5
There is a new version of this tab from 6 days ago which you may like more. Go check it out:
comments
print report bad tab
3 comments total.
0 reply
JazzBassman 195 Jun 12, 2016 02:13 PM

Did you accidentally click C# standard instead of D# standard when it asked for the tuning?

guest
You may want to rate the tab now too:
select rating
Wanna post a correction for this tab? Suggest correction