Oops, an error
Loading. Please wait.

Knuckles tab

version 2
version 2

Whole song

Video

4,060 views 48 this week
no commentswrite comment
1 2 3 4 5
x 6
add to favorites
×
Save as Personal and add changes to this tab that will be seen only by you. Learn more ›
×
You can save this tab as Personal to edit and correct it or add notes. All changes will be seen only by you. Learn more »
launch autoscroll
font size
0
reset
how to read this tab
guitar tuner
edit
Autoscroll
slow
fast
+/-
esc
set tempo
stop
KNUCKLES
MOOSE BLOOD
BLUSH

*SCROLL DOWN FOR ALT NON-CAPO VERSION*

VERSION 1 - WITH CAPO/LIVE

CAPO 4 

[Intro + verse]
E|---------------------------------------------------------------------------|
B|---------------------------------------------------------------------------|
G|---------------------------------------------------------------------------|
D|-5-5-5-5-5-4-4-4-4-4-4-4-4-4-4-7-7-7-7-7-7-7-7-4-4-4-4-4-4-4-5-5-5-5-4-4---|
A|-5-5-5-5-5-5-5-5-5-5-5-5-5-5-5-5-5-5-5-5-5-5-5-5-5-5-5-5-5-5-5-5-5-5-5-5---|
E|---------------------------------------------------------------------------|
PM . . . . . . . . . . . . . . . . . . . . . . . . . . . . . . . . . . . . 

E|---------------------------------------------------------------------------|
B|---------------------------------------------------------------------------|
G|---------------------------------------------------------------------------|
D|-5-5-5-5-5-4-4-4-4-4-4-4-4-4-4-5-5-5-5-5-5-5-5-4-4-4-4-4-4-4-5-5-5-5-4-4---|
A|-3-3-3-3-3-3-3-3-3-3-3-3-3-3-3-3-3-3-3-3-3-3-3-3-3-3-3-3-3-3-3-3-3-3-3-3---|
E|---------------------------------------------------------------------------|
PM . . . . . . . . . . . . . . . . . . . . . . . . . . . . . . . . . . . . 

[Pre-chorus]
E|---------------------------------------|
B|---------------------------------------|
G|---------------------------------------|
D|-5--5----5-5-5-5----5--5----5-5-5-5----|
A|-5--5----5-5-5-5----5--5----5-5-5-5----|
E|-3--3----3-3-3-3----3--3----3-3-3-3----|

[Chorus]
E|--------------------------------------------------------------------|
B|-8-8-8-8-8-8-8-8-8-8-8-8-8-8-8-8-8-8-8-8-8-8-8-8-8-8-8-8-8-8-8-8----|
G|-7-7-7-7-7-7-7-7-7-7-7-7-7-7-7-7-7-7-7-7-7-7-7-7-7-7-7-7-7-7-7-7----| repeat this chord 
D|-5-5-5-5-5-5-5-5-5-5-5-5-5-5-5-5-5-5-5-5-5-5-5-5-5-5-5-5-5-5-5-5----| through chorus
A|-5-5-5-5-5-5-5-5-5-5-5-5-5-5-5-5-5-5-5-5-5-5-5-5-5-5-5-5-5-5-5-5----|
E|--------------------------------------------------------------------|
                                                                          
Lead part
E|-----------------------------------------------------------------|
B|------------------------3---------------------------3------------|
G|-0-2-0-4-2-0-2--0-2-0-2---2----0-2-0-4-2-0-2--0-2-0---4-4--------|
D|-----------------------------------------------------------------|
A|-----------------------------------------------------------------|
E|-----------------------------------------------------------------|

E|-----------------------------------------------------------------|
B|------------------------3----------------------------------------|
G|-0-2-0-4-2-0-2--0-2-0-2---2----0-2-0-4-2-0-2--4-0-0-2-0----------|
D|-----------------------------------------------------------------|
A|-----------------------------------------------------------------|
E|-----------------------------------------------------------------|

E|-----------------------------------------------------------------|
B|------------------------3---------------------------3------------|
G|-0-2-0-4-2-0-2--0-2-0-2---2----0-2-0-4-2-0-2--0-2-0---4-4--------|
D|-----------------------------------------------------------------|
A|-----------------------------------------------------------------|
E|-----------------------------------------------------------------|

E|-----------------------------------------------------------------|
B|------------------------3----------------------------------------|
G|-0-2-0-4-2-0-2--0-2-0-2---2----0-0----0-0-0----0-0-0----0-0-0----|
D|-----------------------------------------------------------------|
A|-----------------------------------------------------------------|
E|-----------------------------------------------------------------|

[Bridge]
E|--------------------------------------------|
B|---3---3------3---3-------------------------|
G|-0---4------2---4------4-0--0-0-2-0--0-0----| x4
D|--------------------------------------------|
A|--------------------------------------------|
E|--------------------------------------------|

e|-------------------------------------------------------------------------------------|
B|-------------------------------------------------------------------------------------|
G|-------------------------------------------------------------------------------------|
D|-5-5-5-7-7-7-9-9-9-10-9-9-9-9----5-5-5-7-7-7-9-9-9-10-9-9-9-9------------------------|
A|-------------------------------------------------------------------------------------|
E|-------------------------------------------------------------------------------------|

e|---------------------------------------------------------|
B|---------------------------------------------------------|
G|---------------------------------------------------------|
D|-5-5-5-7-7-7-9-9-9-10-9-9-9-9-7-7-7-7-5-5-5-5-5-5-5-5----|
A|---------------------------------------------------------|
E|---------------------------------------------------------|

[Outro]
E|------------------------------------------------------------------------|
B|------------------------------------------------------------------------|
G|------------------------------------------------------------------------|
D|-5-5-5-5-5-4-4-4-4-4-4-4-4-4-4-7-7-7-7-7-7-7-7-4-4-4-4-4-4-4-5-5-5-5----|
A|-5-5-5-5-5-5-5-5-5-5-5-5-5-5-5-5-5-5-5-5-5-5-5-5-5-5-5-5-5-5-5-5-5-5----|
E|------------------------------------------------------------------------|
PM . . . . . . . . . . . . . . . . . . . . . . . . . . . . . . 




VERSION 2 - NO CAPO

[Intro + verse]
E|---------------------------------------------------------------------------|
B|---------------------------------------------------------------------------|
G|-4-4-4-4-4-3-3-3-3-3-3-3-3-3-3-6-6-6-6-6-6-6-6-3-3-3-3-3-3-3-4-4-4-4-3-3---|
D|-4-4-4-4-4-4-4-4-4-4-4-4-4-4-4-4-4-4-4-4-4-4-4-4-4-4-4-4-4-4-4-4-4-4-4-4---|
A|---------------------------------------------------------------------------|
E|---------------------------------------------------------------------------|
PM . . . . . . . . . . . . . . . . . . . . . . . . . . . . . . . . . . . . 

E|---------------------------------------------------------------------------|
B|---------------------------------------------------------------------------|
G|-4-4-4-4-4-3-3-3-3-3-3-3-3-3-3-4-4-4-4-4-4-4-4-3-3-3-3-3-3-3-4-4-4-4-3-3---|
D|-2-2-2-2-2-2-2-2-2-2-2-2-2-2-2-2-2-2-2-2-2-2-2-2-2-2-2-2-2-2-2-2-2-2-2-2---|
A|---------------------------------------------------------------------------|
E|---------------------------------------------------------------------------|
PM . . . . . . . . . . . . . . . . . . . . . . . . . . . . . . . . . . . . 

[Pre-chorus]
E|---------------------------------------|
B|---------------------------------------|
G|-4--4----4-4-4-4----4--4----4-4-4-4----|
D|-4--4----4-4-4-4----4--4----4-4-4-4----|
A|-2--2----2-2-2-2----2--2----2-2-2-2----|
E|---------------------------------------|

[Chorus]
E|--------------------------------------------------------------------|
B|--------------------------------------------------------------------|
G|---------------------------------4-4-4-4-4-4-4-4--------------------|
D|-6-6-6-6-6-6-6-6-4-4-4-4-4-4-4-4-4-4-4-4-4-4-4-4-2-2-2-2-2-2-2-2----|
A|-6-6-6-6-6-6-6-6-4-4-4-4-4-4-4-4-2-2-2-2-2-2-2-2-2-2-2-2-2-2-2-2----|
E|-4-4-4-4-4-4-4-4-2-2-2-2-2-2-2-2-----------------0-0-0-0-0-0-0-0----|
                                                                          X2
E|--------------------------------------------------------------------|
B|--------------------------------------------------------------------|
G|---------------------------------4-4-4-4-4-4-4-4-4-4-4-4-4-4-4-4----|
D|-6-6-6-6-6-6-6-6-4-4-4-4-4-4-4-4-4-4-4-4-4-4-4-4-4-4-4-4-4-4-4-4----|
A|-6-6-6-6-6-6-6-6-4-4-4-4-4-4-4-4-2-2-2-2-2-2-2-2-2-2-2-2-2-2-2-2----|
E|-4-4-4-4-4-4-4-4-2-2-2-2-2-2-2-2------------------------------------|

Lead part
E|------------------------2---------------------------2------------|
B|---2---4-2---2----2---2---2------2---4-2---2----2-----4-4--------|
G|-4---4-----4----4---4----------4---4-----4----4---4--------------|
D|-----------------------------------------------------------------|
A|-----------------------------------------------------------------|
E|-----------------------------------------------------------------|

E|------------------------2----------------------------------------|
B|---2---4-2---2----2---2---2------2---4-2---2--4-----2------------|
G|-4---4-----4----4---4----------4---4-----4------4-4---4----------|
D|-----------------------------------------------------------------|
A|-----------------------------------------------------------------|
E|-----------------------------------------------------------------|

E|------------------------2---------------------------2------------|
B|---2---4-2---2----2---2---2------2---4-2---2----2-----4-4--------|
G|-4---4-----4----4---4----------4---4-----4----4---4--------------|
D|-----------------------------------------------------------------|
A|-----------------------------------------------------------------|
E|-----------------------------------------------------------------|

E|------------------------2----------------------------------------|
B|---2---4-2---2----2---2---2--------------------------------------|
G|-4---4-----4----4---4----------4-4----4-4-4----4-4-4----4-4-4----|
D|-----------------------------------------------------------------|
A|-----------------------------------------------------------------|
E|-----------------------------------------------------------------|

[Bridge]
E|---2---2------2---2-------------------------|
B|-----4------2---4------4--------2-----------|
G|-4-----------------------4--4-4---4--4-4----| x4
D|--------------------------------------------|
A|--------------------------------------------|
E|--------------------------------------------|

e|-------------------------------------------------------------------------------------|
B|-------------------------------------------------------------------------------------|
G|-------------------------------------------------------------------------------------|
D|-9-9-9-11-11-11-13-13-13-14-13-13-13-13----9-9-9-11-11-11-13-13-13-14-13-13-13-13----|
A|-------------------------------------------------------------------------------------|
E|-------------------------------------------------------------------------------------|

e|--------------------------------------------------------------------------------|
B|--------------------------------------------------------------------------------|
G|--------------------------------------------------------------------------------|
D|-9-9-9-11-11-11-13-13-13-14-13-13-13-13-11-11-11-11-11-11-11-11-9-9-9-9-9-9-9-9-|
A|--------------------------------------------------------------------------------|
E|--------------------------------------------------------------------------------|

[Outro]
E|----------------------------------------------------------------------|
B|----------------------------------------------------------------------|
G|-4-4-4-4-4-3-3-3-3-3-3-3-3-3-3-6-6-6-6-6-6-6-6-3-3-3-3-3-3-3-4-4-4-4--|
D|-4-4-4-4-4-4-4-4-4-4-4-4-4-4-4-4-4-4-4-4-4-4-4-4-4-4-4-4-4-4-4-4-4-4--|
A|----------------------------------------------------------------------|
E|----------------------------------------------------------------------|
PM . . . . . . . . . . . . . . . . . . . . . . . . . . . . . . 





            
            
Suggest correction
Creating personal tab
Creating personal tab
You can edit any tab online and save it as your Personal.

You can edit, replace or remove any tab part or add personal notes – all changes will be seen only by you.

Personal tabs can be accessed anytime from any device, even offline.
Learn more »
comments
print report bad tab
guest
You may want to rate the tab now too:
select rating
Wanna post a correction for this tab? Suggest correction