Oops, an error
Loading. Please wait.

Swim Down bass

865 views 3 this week
no commentswrite comment
1 2 3 4 5
1 last vote to show rating
add to favorites
×
Save as Personal and add changes to this tab that will be seen only by you. Learn more ›
×
You can save this tab as Personal to edit and correct it or add notes. All changes will be seen only by you. Learn more »
launch autoscroll
font size
0
reset
guitar tuner
edit
Autoscroll
slow
fast
+/-
esc
set tempo
stop
Author
[Intro] 

no bass untill 0.32 and the send run through of the guitar riff


G|-----------------------------------------------------------------------------------|
D|-----------------------------------------------------------------------------------|
A|--------------------5-5-5-5-5-5-5-5------------------------------------------------|
E|--5-5-5-5-5-5-5-5--------------------5-5-5-5-5-5-5-5--7-7-7-7-7-7-7-7--------------|

[Verse] 

  "She said you've been drinking far too much, you've been drunk every night this week,
G|--------------------------------------------------------------------------------|
D|--------------------------------------------------------------------------------|
A|--5-5-5-5-5-5-5-5-5-5-5-5-5-5-5-5-----------------------------------------------|
E|---------------------------------------5-5-5-5-5-5-5-5---7-7-7-7-7-7-7-7--------|

  "I'm so sick of falling asleep without you"
G|-------------------------------------------------------------------------------|
D|-------------------------------------------------------------------------------|
A|--5-5-5-5-5-5-5-5-5-5-5-5-5-5-5-5----------------------------------------------|
E|------------------------------------5-5-5-5-5-5-5-5--7-7-7-7-7-7-7-7-----------|

  "And she said, just touch my body and kiss me like you used to. She said boy I miss you"
G|-------------------------------------------------------------------------------|
D|-------------------------------------------------------------------------------|
A|--5-5-5-5-5-5-5-5-5-5-5-5-5-5-5-5----------------------------------------------|  x2
E|-----------------------------------5-5-5-5-5-5-5-5--7-7-7-7-7-7-7-7------------|


No bass again until second time round of guitar riff

G|-----------------------------------------------------------------------------------|
D|-----------------------------------------------------------------------------------|
A|--------------------5-5-5-5-5-5-5-5------------------------------------------------|
E|--5-5-5-5-5-5-5-5--------------------5-5-5-5-5-5-5-5--7-7-7-7-7-7-7-7--------------|

[Chorus} rhythm changes, listen out for it, it's quite easy to hear

 "I've been thinking about you girl, and sweetheart I owe you the world, even though you get drunk and shout
  on the way home" 
G|---------------------------------------------------------------------------------|
D|---------------------------------------------------------------------------------|
A|----------------5-5-5-5-5-5---9-9-9-9-9-9---5-5-5-5-5-5--------------------------|    x2
E|---5-5-5-5-5-5-------------------------------------------------------------------|


[Outro] 

(play twice before singing stars then three more times for the outro)

G|---------------------------------------------------------------------------|
D|---------------------------------------------------------------------------|
A|-5-5-5-5-5-5-5-5-5-5-5-5-5-5-5-5-5-5-5-5-5-5-5-5s7-7-7--9-9-9--7-7---------|
E|---------------------------------------------------------------------------|

G|---------------------------------------------------------------------------|
D|--5-5-5-5-5-5-5-5-5-5-5-5-5-5-5-5---4-4-4-4-4-4-4-4-4-4-4-4-4-4-4-4--------|
A|---------------------------------------------------------------------------|
E|---------------------------------------------------------------------------|

G|---------------------------------------------------------------------------|
D|---------------------------------------------------------------------------|
A|---5~----------------------------------------------------------------------|
E|---------------------------------------------------------------------------|


************************************

| x   Dead note
| g   Grace note
| (n) Ghost note
| h   Hammer-on
| p   Pull-off
| r   Release
| >   Accented note
| t   Tapping
| b   Bend
| br  Bend release
| pb  Pre-bend
| pbr Pre-bend release
| /   Slide up
| \   Slide down
| ~   Vibrato
| s   Slap
| P   Pop
| PM  Palm mute
| TR  Trill
| N   Tremolo

************************************

            
            
Suggest correction
Creating personal tab
Creating personal tab
You can edit any tab online and save it as your Personal.

You can edit, replace or remove any tab part or add personal notes – all changes will be seen only by you.

Personal tabs can be accessed anytime from any device, even offline.
Learn more »
Give kudos to tab author, rate the tab!
1 2 3 4 5
comments
print report bad tab
guest
You may want to rate the tab now too:
select rating
Wanna post a correction for this tab? Suggest correction