Oops, an error
Loading. Please wait.

The Body Disagrees Tab

75 views 1 this week
no commentswrite comment
1 2 3 4 5
please rate
add to favorites
launch autoscroll
font size
0
reset
how to read this tab
guitar tuner
Tab Pro tools
  • play this tab
  • loop segment
  • change instrument
  • show fretboard
  • metronome
×
Best way to learn
"The Body Disagrees"
Autoscroll
slow
fast
+/-
esc
set tempo
stop
Contributor
Difficulty
hey this is my first tab, and i didn't really want to make one, but nobody had a tab up 
this song, and it's an amazing song and i figured out how to play it, so i thought i'd 
with everyone, for it's a great song
this song is The Body Disagrees by Moostache, off of the album The Body Disagrees.  It's 
standard tuning.

intro part (where it is strummed up and down, but very lightly.  listen to the song for 
strum pattern)
-0--2-----------|
-3--3-----------|
-4--4-----------|
-4--4-----------|
-2--2-----------|
----------------| x2

verse
---2---------2--------------------|
---3---------3--------------------|
---4---------4--------------------|
---4---------4--------------------|
-2-2-----4-2-2--------------------|
-----2-5--------------------------|

repeat until whenever it does in the song, then play

prechorus
---2--------2-3-0-----------------|
---3--------2-3-0-----------------|
---4--------3-4-1-----------------|
---4--------4-5-2-----------------|
-2-2-----4--4-5-2-----------------|
-----2-5----2-3-0-----------------|
that repeats a couple of times (listen to the song to find out the exact number of 
then it goes into the chorus, which is

chorus
------------------------------------------------------------------|
------------------------------------------------------------------|
------------------------------------------------------------------|
-------------------------------------4-----4---------4-----4------|
-----2-----2---------2-----2-2-4-5-5---5-5---5-4-2-2---2-2---2-0--|
-3-3---3-3---3-2-3-3---3-3----------------------------------------|

repeat that for however long the chorus is, then play

afterchorus
--3----------------2----------|
--3--------7-------3----------|
--4--------7-------4----------|
--5--------7-------4----------|
--5--------5-------2----------|
--3---------------------------|
these chords are G, D, Bm, i just choose to play them as bar chords, play them however 
wish.  repeat this for however long the song does
then go back and play the verse and the prechorus until whenever the song does, then 
the chorus again, just like the song, and for however long the song does, then play the 
again, but this time it's slightly different, it now goes

afterchorus2
--3-----------2----------3------------2------2-2-2-2-2-2-2-2--|
--3-----7-----3----------3-----7------3------3-3-3-3-3-3-3-3--|
--4-----7-----4----------4-----7------4------4-4-4-4-4-4-4-4--|
--5-----7-----4----------5-----7------4------4-4-4-4-4-4-4-4--|
--5-----5-----2--0h2-----5-----5------2--0h2-2-2-2-2-2-2-2-2--|
--3----------------------3------------------------------------|

then it goes back into the chorus, and it almost sounds like there's 2 guitars here, one 
the chords G, D, Bm, and one playing the picking part of the chorus, play whichever you 
it sounds good either way, though i prefer to pick the chorus here

then go back and play the afterchorus again, 3 times, then play

outro
--3--------------------------------------------|
--3------7-----7-----7-----7-------------------|
--4------7-----7-----7-----7-------------------|
--5------7-----7-----7-----7-------------------|
--5------5-----5-----5-----5-------------------|
--3--------------------------------------------|

so the order the song goes in is:

intro
verse
prechorus
chorus
afterchorus
verse
prechorus
chorus
afterchorus2
chorus
afterchorus
outro

it goes like that, listen to the song to get the timings, it'll be easier to understand 
listening to the song.  Happy playings!
comments
We did not receive enough feedback on this tab! Please rate:
print report bad tab
1 2 3 4 5
I want to post or [tab]
guest
You may want to rate the tab now too:
select rating
Please do not post tabs as comments. Select "correction" instead!