Oops, an error
Loading. Please wait.

The Planters Wife Tab

136 views 1 this week
no commentswrite comment
1 2 3 4 5
please rate
add to favorites
launch autoscroll
font size
0
reset
how to read this tab
guitar tuner
Autoscroll
slow
fast
+/-
esc
set tempo
stop
Help us to improve Ultimate-Guitar.com Take our survey!
×
Author
Song: The Planter's Wife
Band: Moostache
Album: The Body Disagrees

http://www.myspace.com/moostachetheband
http://www.facebook.com/home.php#/moostache?ref=ts

s  -   slide
x  -   mute
h  -   hammer-on

Intro:

e|----------------------------------------------------|
B|----------------------------------------------------|
G|----------------------------------------------------|
D|----------------------------------------------------|
A|---0-2-----0-3-0-3-0-3s5-5-5-5s7--5-3-2-------------|
E|-3---------------------------------------3---3x3-0--|

e|-------------------------------------------------------------------|
B|-------------------------------------------------------------------|
G|-0h2s4-2-0-2s4-4--4-4-5-4-5s7-7----7-7-7-5-4-0h2-0-----0------0----|
D|--------------------------------------------------0h2----0h2----2--|
A|-------------------------------------------------------------------|
E|-------------------------------------------------------------------|


Verse:
     Am                D7               G               Em
This song could not be written for one girl, and i know why

         Am              D7             G                 Em
Ah This song was written solely for the world, to hear my cry

       C             G
It's a danger to you

------

Chorus:

Am                    D7                     G          Em
   Cause oh when it's cold outside and she's got nobody to love

Am                D7           G         Em
   Spend all your money on the trees you own

Am                 D7              G       Em
   But oh when its getting way too warm at home

Am                D7       G  Em
   Spend all your money on me

------

Verse:

     Am                D7           G                Em
This song could not be sailing overseas, and don't I see

         Am         D7              G               Em
That the only money spent is in the grave, I got no say
 
         Am                D7                  G            Em
Why they kill the mothers, spare the daughter, I'm the only son

    Am          D7                   G    
Who hasn't been acquainted with the gun

-----

Break: (not sure on these break lyrics)

Em, B, G, B, C, B


Em            B      G            B               C           B
These are the air outside, and it makes me starve away and it makes me starve and

Em             B     G         B                  C
These are the air outside, and it makes me starve away

     B                G         Em
Oh I want to starve a whole lot away

------

Chorus
 
Am                   D7                     G          Em
Cause when its cold outside and she's got nobody to love

Am                D7           G         Em
   Spend all your money on the trees you own

Am                  D7              G       Em
   But oh when it's getting way too warm at home

Am                D7       G
   Spend all your money on me

-------------------------------------------



Suggest correction
What's this?
You can suggest a correction to this tab. Community and Mods will review your correction and vote to approve or reject it.
comments
We did not receive enough feedback on this tab! Please rate:
print report bad tab
1 2 3 4 5
guest
You may want to rate the tab now too:
select rating
Please do not post tabs as comments. Select "correction" instead!